Oops, an error
Loading. Please wait.

Holiday Bass Tab

version 1
version 1

Whole song

Interactive

601 views 9 this week
no commentswrite comment
1 2 3 4 5
excellent!
x 3
add to favorites
launch autoscroll
font size
0
reset
guitar tuner
Autoscroll
slow
fast
+/-
esc
set tempo
stop
Help us to improve Ultimate-Guitar.com Take our survey!
×
Author
Difficulty
Tuning
novice
D A D G B E
-------------------------------------------------------------------------------
			     Holiday - The Birthday Massacre
-------------------------------------------------------------------------------

Tabbed By : Necrotic
e-mail: joelschwallier@gmail.com

Tuning: Drop D 

Intro
G|---------------------------------------------------------------|
D|---------------------------------------------------------------|
A|---------------------------------------------------------------|
D|4-4-4-4-4-4-4-4-7-7-7-7-7-7-7-7-0-0-0-0-0-0-0-0-0-0-0-0-0-0-4-4|

G|----------------------------------------------------------------|
D|----------------------------------------------------------------|
A|----------------2-2-2-2-2-2-2-2---------------------------------|
D|2-2-2-2-2-2-2-2-----------------0-0-0-0-0-0-0-0-0-0-0-0-0-0-2-2-|

G|---------------------------------------------------------------|
D|---------------------------------------------------------------|
A|---------------------------------------------------------------|
D|4-4-4-4-4-4-4-4-7-7-7-7-7-7-7-7-0-0-0-0-0-0-0-0-0-0-0-0-0-0-4-4|

G|----------------------------------------------------------------|
D|----------------------------------------------------------------|
A|----------------2-2-2-2-2-2-2-2---------------------------------|
D|2-2-2-2-2-2-2-2-----------------0-0-0-0-0-0-0-0-0-0-0-0-0-0-2-2-|

Verse
G|----------------------------------------------------------------|
D|----------------------------------------------------------------|
A|----------------0-0-0-0-0-0-0-0-2-2-2-2-2-2-2-2-5-5-5-5-5-5-5-5-|
D|4-4-4-4-4-4-4-4-------------------------------------------------|x4

Chorus
G|---------------------------------------------------------------|
D|---------------------------------------------------------------|
A|---------------------------------------------------------------|
D|4-4-4-4-4-4-4-4-7-7-7-7-7-7-7-7-0-0-0-0-0-0-0-0-0-0-0-0-0-0-4-4|

G|----------------------------------------------------------------|
D|----------------------------------------------------------------|
A|----------------2-2-2-2-2-2-2-2---------------------------------|
D|2-2-2-2-2-2-2-2-----------------0-0-0-0-0-0-0-0-0-0-0-0-0-0-2-2-|

G|---------------------------------------------------------------|
D|---------------------------------------------------------------|
A|---------------------------------------------------------------|
D|4-4-4-4-4-4-4-4-7-7-7-7-7-7-7-7-0-0-0-0-0-0-0-0-0-0-0-0-0-0-4-4|

G|----------------------------------------------------------------|
D|----------------------------------------------------------------|
A|----------------2-2-2-2-2-2-2-2---------------------------------|
D|2-2-2-2-2-2-2-2-----------------0-0-0-0-0-0-0-0-0-0-0-0-0-0-2-2-|

Verse   Third time accent these   v-v-v-v notes 
G|----------------------------------------------------------------|
D|----------------------------------------------------------------|
A|--------------------------------2-2-2-2-2-2-2-2-5-5-5-5-5-5-5-5-|
D|4-4-4-4-4-4-4-4-2-2-2-2-2-2-2-2---------------------------------|x4

Chorus
G|---------------------------------------------------------------|
D|---------------------------------------------------------------|
A|---------------------------------------------------------------|
D|4-4-4-4-4-4-4-4-7-7-7-7-7-7-7-7-0-0-0-0-0-0-0-0-0-0-0-0-0-0-4-4|

G|----------------------------------------------------------------|
D|----------------------------------------------------------------|
A|----------------2-2-2-2-2-2-2-2---------------------------------|
D|2-2-2-2-2-2-2-2-----------------0-0-0-0-0-0-0-0-0-0-0-0-0-0-2-2-|

G|---------------------------------------------------------------|
D|---------------------------------------------------------------|
A|---------------------------------------------------------------|
D|4-4-4-4-4-4-4-4-7-7-7-7-7-7-7-7-0-0-0-0-0-0-0-0-0-0-0-0-0-0-4-4|

G|----------------------------------------------------------------|
D|----------------------------------------------------------------|
A|----------------2-2-2-2-2-2-2-2---------------------------------|
D|2-2-2-2-2-2-2-2-----------------0-0-0-0-0-0-0-0-0-0-0-0-0-0-2-2-|

Bridge
G|----------------------------------------------------------------|
D|----------------------------------------------------------------|
A|--------------------------------------------------------2-2-----|
D|4-4-----7-7-----0-0-----2-2-----4-4-----2-2-----0-0-------------|x2

G|----------------------------------------------------------------|
D|----------------------------------------------------------------|
A|--------------------------------------------------------2-2-xxxx|
D|4-4-xxxx7-7-xxxx0-0-xxxx2-2-xxxx4-4-xxxx2-2-xxxx0-0-------------|

G|----------------------------------------------------------------|
D|----------------------------------------------------------------|
A|--------------------------------------------------------2-2-----|
D|4-4-xxxx7-7-xxxx0-0-xxxx2-2-xxxx4-4-xxxx2-2-xxxx0-0-------------|

Chorus
G|---------------------------------------------------------------|
D|---------------------------------------------------------------|
A|---------------------------------------------------------------|
D|4-4-4-4-4-4-4-4-7-7-7-7-7-7-7-7-0-0-0-0-0-0-0-0-0-0-0-0-0-0-4-4|

G|----------------------------------------------------------------|
D|----------------------------------------------------------------|
A|----------------2-2-2-2-2-2-2-2---------------------------------|
D|2-2-2-2-2-2-2-2-----------------0-0-0-0-0-0-0-0-0-0-0-0-0-0-2-2-|

G|---------------------------------------------------------------|
D|---------------------------------------------------------------|
A|---------------------------------------------------------------|
D|4-4-4-4-4-4-4-4-7-7-7-7-7-7-7-7-0-0-0-0-0-0-0-0-0-0-0-0-0-0-4-4|

G|----------------------------------------------------------------|
D|----------------------------------------------------------------|
A|----------------2-2-2-2-2-2-2-2---------------------------------|
D|2-2-2-2-2-2-2-2-----------------0-0-0-0-0-0-0-0-0-0-0-0-0-0-2-2-|

G|---------------------------------------------------------------|
D|---------------------------------------------------------------|
A|---------------------------------------------------------------|
D|4-4-4-4-4-4-4-4-7-7-7-7-7-7-7-7-0-0-0-0-0-0-0-0-0-0-0-0-0-0-4-4|

G|----------------------------------------------------------------|
D|----------------------------------------------------------------|
A|----------------2-2-2-2-2-2-2-2---------------------------------|
D|2-2-2-2-2-2-2-2-----------------0-0-0-0-0-0-0-0-0-0-0-0-0-0-2-2-|



| v  accent
| /  slide up
| \  slide down
| h  hammer-on
| p  pull-off
| ~  vibrato
| +  harmonic
| x  Mute note
===============================================================================
Suggest correction
Give kudos to tab author, rate the tab!
1 2 3 4 5
comments
print report bad tab
guest
You may want to rate the tab now too:
select rating
Please do not post tabs as comments. Select "correction" instead!