Oops, an error
Loading. Please wait.

Holiday Tab

version 1
version 1

Whole song

Interactive

848 views 1 this week
no commentswrite comment
1 2 3 4 5
please rate
add to favorites
launch autoscroll
font size
0
reset
how to read this tab
guitar tuner
Autoscroll
slow
fast
+/-
esc
set tempo
stop
Help us to improve Ultimate-Guitar.com Take our survey!
×
Author
Tuning
E A D G B E
                        The Birthday Massacre - 'Holiday'
                       
                      * Tab by Corey Hunter: 17th Dec 2007
  



  Gtr I (D A D G B E) 


* Guitar is Drop D tuning

* Although there isn't any guitar in the Verse sections, I've done
  a Bass Style part that utilises single notes with palm-muting.

* The palm-muted bits in the Bridge section are basically white noise.
  To achieve this sound, press a little harder than normal whilst retaining
  the chord shapes.




   Intro / Chorus Riff

    Q=112


    F#5               A5                D5
   
    Gtr I
    E E E E E E E E   E E E E E E E E   E E E E E E E E   E E E E E E E E
||------------------|-----------------|-----------------|------------------|
||o-----------------|-----------------|-----------------|------------------|
||------------------|-----------------|-----------------|------------------|
||--4-4-4-4-4-4-4-4-|-7-7-7-7-7-7-7-7-|-0-0-0-0-0-0-0-0-|-0-0-0-0-0-0-0-0--|
||o-4-4-4-4-4-4-4-4-|-7-7-7-7-7-7-7-7-|-0-0-0-0-0-0-0-0-|-0-0-0-0-0-0-0-0--|
||--4-4-4-4-4-4-4-4-|-7-7-7-7-7-7-7-7-|-0-0-0-0-0-0-0-0-|-0-0-0-0-0-0-0-0--|


  E5                B5                D5
  E E E E E E E E   E E E E E E E E   E E E E E E E E   E E E E E E E E
|-----------------|-----------------|-----------------|-------------------||
|-----------------|-----------------|-----------------|------------------o||
|-----------------|-4-4-4-4-4-4-4-4-|-----------------|-------------------||
|-2-2-2-2-2-2-2-2-|-4-4-4-4-4-4-4-4-|-0-0-0-0-0-0-0-0-|-0-0-0-0-0-0-0-0---||
|-2-2-2-2-2-2-2-2-|-2-2-2-2-2-2-2-2-|-0-0-0-0-0-0-0-0-|-0-0-0-0-0-0-0-0--o||
|-2-2-2-2-2-2-2-2-|-----------------|-0-0-0-0-0-0-0-0-|-0-0-0-0-0-0-0-0---||


   Verses
    F#5               E5                B5                D5
    PM------------------------------------------------------------------|
    E E E E E E E E   E E E E E E E E   E E E E E E E E   E E E E E E E E  3x
||------------------|-----------------|-----------------|------------------||
||o-----------------|-----------------|-----------------|-----------------o||
||------------------|-----------------|-----------------|------------------||
||------------------|-----------------|-----------------|------------------||
||o-----------------|-----------------|-2-2-2-2-2-2-2-2-|-----------------o||
||--4-4-4-4-4-4-4-4-|-2-2-2-2-2-2-2-2-|-----------------|-0-0-0-0-0-0-0-0--||


  F#5               E5                B5                D5
  PM----------------------------------------------------------------|
  E E E E E E E E   E E E E E E E E   E E E E E E E E   E E E E E E E E
|-----------------|-----------------|-----------------|------------------||
|-----------------|-----------------|-----------------|------------------||
|-----------------|-----------------|-----------------|------------------||
|-----------------|-----------------|-----------------|------------------||
|-----------------|-----------------|-2-2-2-2-2-2-2-2-|------------------||
|-4-4-4-4-4-4-4-4-|-2-2-2-2-2-2-2-2-|-----------------|-0-0-0-0-0-0-0----||


   Bridge
    F#5    A5       D5     E5       F#5    E5
    E E Q  E E Q    E E Q  E E Q    E E Q  E E Q
||----------------|---------------|---------------|
||o---------------|---------------|---------------|
||----------------|---------------|---------------|
||--4-4----7-7----|-0-0----2-2----|-4-4----2-2----|
||o-4-4----7-7----|-0-0----2-2----|-4-4----2-2----|
||--4-4----7-7----|-0-0----2-2----|-4-4----2-2----|


 1.                 2.
  D5     B5         D5     A5
  E E Q  E E Q      E E Q  E E Q
|----------------||----------------|
|---------------o||----------------|
|--------4-4-----||--------2-2-----|
|-0-0----4-4-----||-0-0----2-2-----|
|-0-0----2-2----o||-0-0----0-0-----|
|-0-0------------||-0-0------------|


    F#5         A5            D5          E5
        PM----|     PM----|       PM----|     PM----|
    E E S S S S E E S S S S   E E S S S S E E S S S S
||--------------------------|-------------------------|
||o-------------------------|-------------------------|
||--------------------------|-------------------------|
||--4-4-x-x-x-x-7-7-x-x-x-x-|-0-0-x-x-x-x-2-2-x-x-x-x-|
||o-4-4-x-x-x-x-7-7-x-x-x-x-|-0-0-x-x-x-x-2-2-x-x-x-x-|
||--4-4-x-x-x-x-7-7-x-x-x-x-|-0-0-x-x-x-x-2-2-x-x-x-x-|


  1.
  F#5         E5            D5          B5
      PM----|     PM----|       PM----|     PM----|
  E E S S S S E E S S S S   E E S S S S E E S S S S
|-------------------------|--------------------------||
|-------------------------|-------------------------o||
|-------------------------|-------------4-4-x-x-x-x--||
|-4-4-x-x-x-x-2-2-x-x-x-x-|-0-0-x-x-x-x-4-4-x-x-x-x--||
|-4-4-x-x-x-x-2-2-x-x-x-x-|-0-0-x-x-x-x-2-2-x-x-x-x-o||
|-4-4-x-x-x-x-2-2-x-x-x-x-|-0-0-x-x-x-x--------------||


  2.
  F#5         E5            D5          A5
      PM----|     PM----|       PM----|
  E E S S S S E E S S S S   E E S S S S E E Q
|-------------------------|--------------------||
|-------------------------|--------------------||
|-------------------------|-------------2-2----||
|-4-4-x-x-x-x-2-2-x-x-x-x-|-0-0-x-x-x-x-2-2----||
|-4-4-x-x-x-x-2-2-x-x-x-x-|-0-0-x-x-x-x-0-0----||
|-4-4-x-x-x-x-2-2-x-x-x-x-|-0-0-x-x-x-x--------||



***************************************************************************************
* Generated using Power Tab Editor by Brad Larsen - http://powertab.guitarnetwork.org *
***************************************************************************************
Suggest correction
Give kudos to tab author, rate the tab!
1 2 3 4 5
comments
print report bad tab
guest
You may want to rate the tab now too:
select rating
Wanna post a correction for this tab? Suggest correction