Oops, an error
Loading. Please wait.

Holiday Tab

version 2
version 2

Whole song

Interactive

529 views 1 this week
no commentswrite comment
1 2 3 4 5
3 more votes to show rating
add to favorites
launch autoscroll
font size
0
reset
how to read this tab
guitar tuner
Autoscroll
slow
fast
+/-
esc
set tempo
stop
Help us to improve Ultimate-Guitar.com Take our survey!
×
Author
Difficulty
novice
Tabbed by MurderBoy
email: head-first-into-traffic@hotmail.com


Intro/Chorus
e|--------------------------------------------------------------------------|
B|--------------------------------------------------------------------------|
G|--------------------7-----9-----------------------------------------------|
D|-4-----7-----5------7-x8--9-x8--7-----------------------------------------|
A|-4-x8--7-x8--5-x16--5-----7-----7-x16-------------------------------------|
E|-2-----5-----3------------------5-----------------------------------------|


Interlude
e|--------------------------------------------------------------------------|
B|--------------------------------------------------------------------------|
G|----------77-99-----------------------------------------------------------|
D|-44-77-55-77-99-77--------------------------------------------------------|
A|-44-77-55-55-77-77--------------------------------------------------------|
E|-22-55-33-------55--------------------------------------------------------|

Interlude 2
e|--------------------------------------------------------------------------|
B|--------------------------------------------------------------------------|
G|--------------------------------------------------------------------------|
D|-44(4444)-77(7777)-55(5555)-----------------------------------------------|
A|-44(4444)-77(7777)-55(5555)-----------------------------------------------|
E|-22(2222)-55(5555)-33(3333)-----------------------------------------------|

Interlude 2 Continued         ^ Starts there
e|--------------------------------------------------------------------------|
B|--------------------------------------------------------------------------|
G|-77(7777)-99(9999)--------------------------------------------------------|
D|-77(7777)-99(9999)-77(7777)-----------------------------------------------|
A|-55(5555)-77(7777)-77(7777)-----------------------------------------------|
E|-------------------55(5555)-----------------------------------------------|


( ) = palm mute
Suggest correction
Give kudos to tab author, rate the tab!
1 2 3 4 5
comments
print report bad tab
guest
You may want to rate the tab now too:
select rating
Wanna post a correction for this tab? Suggest correction