Oops, an error
Loading. Please wait.

In The Dark Bass Tab

version 1
version 1

Whole song

Interactive

1,239 views 1 this week
no commentswrite comment
1 2 3 4 5
please rate
add to favorites
launch autoscroll
font size
0
reset
guitar tuner
Autoscroll
slow
fast
+/-
esc
set tempo
stop
Help us to improve Ultimate-Guitar.com Take our survey!
×
Contributor
Difficulty
Tuning
paied 65
intermediate
D A D G B E
In The Dark by The Birthday Massacre

Fingered Bass in Drop D tuning
Tabbed by Bob Majdak Jr

If you embellish upon the fingering patterns of the chorus and
bridge just a little, you might produce a slightly more accurate
and/or interesting sound.

Intro (x2)

G----------------------------------------------------------------|
D----------------------------------------------------------------|
A----------------------------------------------------------------|
D-2-0-3-0-2--0-3-0-2--0-3-0-2--5--0------------------------------|

G----------------------------------------------------------------|
D----------------------------------------------------------------|
A----------------------------------------------------------------|
D-2-0-3-0-2--0-3-0-2--0-3-0-2--0--1------------------------------|

Verse

G----------------------------------------------------------------|
D----------------------------------------------------------------|
A----------------------------------------------------------------|
D-2-2--2-22----2-2--2-22----2-2--2-22----2-2--2-2-6-5-4----------|

G----------------------------------------------------------------|
D----------------------------------------------------------------|
A----------------------------------------------------------------|
D-0-0--0-00----0-0--0-00----0-0--0-00----0-0--0-0-5-4-0----------|

G----------------------------------------------------------------|
D----------------------------------------------------------------|
A----------------------------------------------------------------|
D-2-2--2-22----2-2--2-22----2-2--2-22----2-2--2-2-6-5-4----------|

G----------------------------------------------------------------|
D----------------------------------------------------------------|
A----------------------------------------------------------------|
D-0-0--0-00----0-0--0-00----0-0--0-00----0-0--0-0-5-0-1----------|

Chorus

G----------------------------------------------------------------|
D----------------------------------------------------------------|
A----------------------------------------------------------------|
D-2-2-2-2-2-2-\10-10-10-10-10-10-0-0-0-0-0-0-7-7-7-8-7-8---------|

G----------------------------------------------------------------|
D----------------------------------------------------------------|
A----------------------------------------------------------------|
D-2-2-2-2-2-2-\10-10-10-10-10-10-0-0-0-0-0-0-7-7-7-8-7-5---------|

Preverse (x2)

G----------------------------------------------------------------|
D----------------------------------------------------------------|
A----------------------------------------------------------------|
D-2-0-3-0-2--0-3-0-2--0-3-0-2--5--0------------------------------|

G----------------------------------------------------------------|
D----------------------------------------------------------------|
A----------------------------------------------------------------|
D-2-0-3-0-2--0-3-0-2--0-3-0-2--0--1------------------------------|

Verse

G----------------------------------------------------------------|
D----------------------------------------------------------------|
A----------------------------------------------------------------|
D-2-2--2-22----2-2--2-22----2-2--2-22----2-2--2-2-6-5-4----------|

G----------------------------------------------------------------|
D----------------------------------------------------------------|
A----------------------------------------------------------------|
D-0-0--0-00----0-0--0-00----0-0--0-00----0-0--0-0-5-4-0----------|

G----------------------------------------------------------------|
D----------------------------------------------------------------|
A----------------------------------------------------------------|
D-2-2--2-22----2-2--2-22----2-2--2-22----2-2--2-2-6-5-4----------|

G----------------------------------------------------------------|
D----------------------------------------------------------------|
A----------------------------------------------------------------|
D-0-0--0-00----0-0--0-00----0-0--0-00----0-0--0-0-5-0-1----------|

Chorus (x2)

G----------------------------------------------------------------|
D----------------------------------------------------------------|
A----------------------------------------------------------------|
D-2-2-2-2-2-2-\10-10-10-10-10-10-0-0-0-0-0-0-7-7-7-8-7-8---------|

G----------------------------------------------------------------|
D----------------------------------------------------------------|
A----------------------------------------------------------------|
D-2-2-2-2-2-2-\10-10-10-10-10-10-0-0-0-0-0-0-7-7-7-8-7-5---------|

Bridge

G----------------------------------------------------------------|
D----------------------------------------------------------------|
A-333333---------------000000-333333-----------------------------|
D--------555555-000000---------------222222-000000-000000--------|


G----------------------------------------------------------------|
D----------------------------------------------------------------|
A-333333---------------000-----333333----------------------------|
D--------555555-000000----222--------222222-000000-000000--------|

G----------------------------------------------------------------|
D----------------------------------------------------------------|
A----------------------------------------------------------------|
D-2------\10------0------7------/2------\10------0r--------------|

Preoutro

G----------------------------------------------------------------|
D----------------------------------------------------------------|
A----------------------------------------------------------------|
D-2-2-2-2-2-2-\10-10-10-10-10-10-0-0-0-0-0-0-7-7-7-8-7-8---------|

G----------------------------------------------------------------|
D----------------------------------------------------------------|
A----------------------------------------------------------------|
D-2-2-2-2-2-2-\10-10-10-10-10-10-0-0-0-0-0-0-7-7-7-8-7-5---------|

Outro (x2)

G----------------------------------------------------------------|
D----------------------------------------------------------------|
A----------------------------------------------------------------|
D-2-0-3-0-2--0-3-0-2--0-3-0-2--5--0------------------------------|

G----------------------------------------------------------------|
D----------------------------------------------------------------|
A----------------------------------------------------------------|
D-2-0-3-0-2--0-3-0-2--0-3-0-2--0--1------------------------------|
comments
We did not receive enough feedback on this tab! Please rate:
print report bad tab
1 2 3 4 5
I want to post or [tab]
guest
You may want to rate the tab now too:
select rating
Please do not post tabs as comments. Select "correction" instead!