Oops, an error
Loading. Please wait.

Kill The Lights Bass Tab

version 1
version 1

Whole song

Interactive

1,293 views 6 this week
1 commentread comment
1 2 3 4 5
excellent!
x 3
add to favorites
launch autoscroll
font size
0
reset
guitar tuner
Autoscroll
slow
fast
+/-
esc
set tempo
stop
Help us to improve Ultimate-Guitar.com Take our survey!
×
Author
Difficulty
Tuning
novice
D A D G B E
Tabbed By : SpookyLoop

Tuning: DADG

Intro X2
G|-------------------------------------------------------------------------|
D|-------------------------------------------------------------------------|
A|-------------------------------------------------------------------------|
D|-0-0-0000-4-4-4444-0-0-0000-4-4-4444-------------------------------------|

G|-------------------------------------------------------------------------|
D|-------------------------------------------------------------------------|
A|-------------------------------------------------------------------------|
D|-2-2-2222-0-0-0000-4-4-4444-2-2-2222-------------------------------------|

Verse
G|-------------------------------------------------------------------------|
D|-------------------------------------------------------------------------|
A|-------------------------------------------------------------------------|
D|-00-44-00-44-22-00-44-22--0--4--0--4--2--0--4--2-------------------------|

Chorus
G|-------------------------------------------------------------------------|
D|-------------------------------------------------------------------------|
A|-------------------------------------------------------------------------|
D|-9--7--7--6--9--7--7--6--------------------------------------------------|

G|-------------------------------------------------------------------------|
D|-------------------------------------------------------------------------|
A|-------------------------------------------------------------------------|
D|-99999999-7777777777777777-66666666-99999999-7777777777777777-66666666---|

Verse 
G|-------------------------------------------------------------------------|
D|-------------------------------------------------------------------------|
A|-------------------------------------------------------------------------|
D|-00-44-00-44-22-00-44-22--0--4--0--4--2--0--4--2-------------------------|

Chorus
G|-------------------------------------------------------------------------|
D|-------------------------------------------------------------------------|
A|-------------------------------------------------------------------------|
D|-9--7--7--6--9--7--7--6--------------------------------------------------|

G|-------------------------------------------------------------------------|
D|-------------------------------------------------------------------------|
A|-------------------------------------------------------------------------|
D|-99999999-7777777777777777-66666666-99999999-7777777777777777-66666666---|

Interlude X4
G|-------------------------------------------------------------------------|
D|-------------------------------------------------------------------------|
A|-------------------------------------------------------------------------|
D|-55555555-00000000-77777777-22222222-------------------------------------|

G|-------------------------------------------------------------------------|
D|-------------------------------------------------------------------------|
A|-------------------------------------------------------------------------|
D|-0--4--0--4--2--0--4--2--------------------------------------------------|

Ending
G|-------------------------------------------------------------------------|
D|-------------------------------------------------------------------------|
A|-------------------------------------------------------------------------|
D|-0-0-0000-4-4-4444-0-0-0000-4-4-4444-------------------------------------|

G|-------------------------------------------------------------------------|
D|-------------------------------------------------------------------------|
A|-------------------------------------------------------------------------|
D|-2-2-2222-0-0-0000-4-4-4444-2-2-2222-0-----------------------------------|

Suggest correction
What's this?
You can suggest a correction to this tab. Community and Mods will review your correction and vote to approve or reject it.
comments
We did not receive enough feedback on this tab! Please rate:
print report bad tab
1 2 3 4 5
1 comment total.
0 reply
bassist6777 40 wrote on October 13 2008, 10:05 pm

... i printed out the guitar tabs for this and was trying to tab this out for about four days. i had everthing that you had but some things were different...well after i got done with my tab, i saw this posted, so i printed it and used it and this version puts my tab to shame... nice job

guest
You may want to rate the tab now too:
select rating
Please do not post tabs as comments. Select "correction" instead!