Oops, an error
Loading. Please wait.

Looking Glass Bass Tab

version 1
version 1

Whole song

Interactive

2,792 views 3 this week
2 commentsread comments
1 2 3 4 5
x 3
add to favorites
launch autoscroll
font size
0
reset
guitar tuner
Autoscroll
slow
fast
+/-
esc
set tempo
stop
Help us to improve Ultimate-Guitar.com Take our survey!
×
Author
Difficulty
novice
-----------------------------------------------------------------
The Looking Glass - The Birthday Massacre
-----------------------------------------------------------------
Tabbed By :  Jeff123
e-mail: PM me, I log in everyonce in a while
Tuning: DADG

Sorry, I don't feel like figuring out rhythm notation so you're on your own for that, but 
pretty sure the tab is 100% note for note.

Intro
G|---------------------------------------------------------------|
D|---------------------------------------------------------------|
A|---------------------------------------------------0-0---0---2-|
D|---2------2--------2-2-----2------5-------5--------------------|

G|---------------------------------------------------------------|
D|---------------------------------------------------------------|
A|---------------------------------------------------------------|
D|---2------2--------2-2-----2------5-------5--------0-0----0----|

Verse

G|---------------------------------------------------------------|
D|---------------------------------------------------------------|
A|---------------------------------------------------------------|
D|-----2---2--------2---2---2------2---2---2-------2---2---2-----|

G|---------------------------------------------------------------|
D|---------------------------------------------------------------|
A|---------------------------------------------------------------|
D|-2---0---0--------0---0---0------0---0---0--------0---0---0----|

G|---------------------------------------------------------------|
D|---------------------------------------------------------------|
A|---------------------------------------------------------------|
D|-0---2---2--------2---2---2------2---2---2-------2---2---2-----|

G|---------------------------------------------------------------|
D|---------------------------------------------------------------|
A|---------------------------------------------------------------|
D|-2---0---0--------0---0---0------0---0---0--------0---0---0----|

G|---------------------------------------------------------------|
D|---------------------------------------------------------------|
A|-----3---3--------3---3---3------3---3---3--------3---3---3----|
D|-0-------------------------------------------------------------|

G|--------------------------------------------------------------------|
D|--------------------------------------------------------------------|
A|-3---5---5--------5---5---5------5---5---5--------5---5---5--3-5-3--|
D|--------------------------------------------------------------------|


G|---------------------------------------------------------------|
D|---------------------------------------------------------------|
A|-----3---3--------3---3---3------3---3---3--------3---3---3----|
D|---------------------------------------------------------------|


G|--------------------------------------------------------------------|
D|--------------------------------------------------------------------|
A|-3---5---5--------5---5---5------5---5---5--------5---5---5--3-5-3--|
D|--------------------------------------------------------------------|

Prechorus (same as intro)
G|---------------------------------------------------------------|
D|---------------------------------------------------------------|
A|---------------------------------------------------0-0---0---2-|
D|---2------2--------2-2-----2------5-------5--------------------|


G|---------------------------------------------------------------|
D|---------------------------------------------------------------|
A|---------------------------------------------------------------|
D|---2------2--------2-2-----2------5-------5--------0-0----0----|

Chorus

G|-----------------------------------------------------|
D|-----------------------------------------------------|
A|----------2-----------------0------------------5-----|
D|---2------------5-5---0-----------2-----5-5----------|


G|-----------------------------------------------------|
D|-----------------------------------------------------|
A|----------2-----------------3-----------2-2----0-----|
D|---2------------5-5---0-----------5------------------|

G|-----------------------------------------------------|
D|-----------------------------------------------------|
A|----------2-----------------0------------------5-----|
D|---2------------5-5---0-----------2-----5-5----------|

Bridge to verse

G|---------------------------------------------------------------|
D|---------------------------------------------------------------|
A|---------------------------------------------------------------|
D|---2------2--------2-2-----2------2--2----2-------2-2-----2----|

Rest of the song goes:

verse

prechorus

extended chorus

G|-----------------------------------------------------|
D|-----------------------------------------------------|
A|----------2-----------------0------------------5-----|
D|---2------------5-5---0-----------2-----5-5----------|


G|-----------------------------------------------------|
D|-----------------------------------------------------|
A|----------2-----------------3-----------2-2----0-----|
D|---2------------5-5---0-----------5------------------|

G|-----------------------------------------------------|
D|-----------------------------------------------------|
A|----------2-----------------0------------------5-----|
D|---2------------5-5---0-----------2-----5-5----------|

G|-----------------------------------------------------|
D|-----------------------------------------------------|
A|----------2-----------------3-----------2-2----0-----|
D|---2------------5-5---0-----------5------------------|


prechorus (solo)

extended chorus

outro (same as bridge to verse)

| /  slide up
| \  slide down
| h  hammer-on
| p  pull-off
| ~  vibrato
| +  harmonic
| x  Mute note
Suggest correction
Give kudos to tab author, rate the tab!
1 2 3 4 5
comments
print report bad tab
2 comments total.
0 reply
bassist6777 30 Jul 21, 2008 06:20 PM

thanks, i'm always looking for Birthday Massacre tabs and trying to tab out songs myself. I don't find any tabs and it is kind of hard to tab out their songs. this is a really good tab. if you will, please help me out with Red Stars, Kill the Lights, and Blue__bassist6777

0 reply
Unclerudedog 10 Jan 08, 2011 12:20 PM

Spot on. Nice job

guest
You may want to rate the tab now too:
select rating
Wanna post a correction for this tab? Suggest correction