Oops, an error
Loading. Please wait.

Looking Glass Bass Tab

version 2
version 2

Whole song

Interactive

  • Accurate keyboard arrangements (compared to others).
1,148 views 1 this week
1 commentread comment
1 2 3 4 5
please rate
add to favorites
launch autoscroll
font size
0
reset
guitar tuner
Autoscroll
slow
fast
+/-
esc
set tempo
stop
Help us to improve Ultimate-Guitar.com Take our survey!
×
Author
Difficulty
novice
Tabbed By : SpookyLoop
 

Tuning: DADG

Intro/Prechorus
G|-------------------------------------------------------------------------|
D|-------------------------------------------------------------------------|
A|-------------------------------------------------------------------------|
D|-2-2-222-2-5-5-777-7-10--2-2-222-2-5-5-000-0-----------------------------|

Verse
G|-------------------------------------------------------------------------|
D|-------------------------------------------------------------------------|
A|-------------------------------------------------------------------------|
D|-22-222-222-222-200-000-000-000-022-222-222-222-200-000-000-000----------|

G|-------------------------------------------------------------------------|
D|-------------------------------------------------------------------------|
A|-------------------------------------------------------------------------|
D|-01010-101010-101010-101010-101212-121212-121212-121212------------------|

G|-------------------------------------------------------------------------|
D|-------------------------------------------------------------------------|
A|-------------------------------------------------------------------------|
D|-121010-101010-101010-101010-101212-121212-121212-121212-12\-------------|

Prechorus
G|-------------------------------------------------------------------------|
D|-------------------------------------------------------------------------|
A|-------------------------------------------------------------------------|
D|-2-2-222-2-5-5-777-7-10--2-2-222-2-5-5-000-0-----------------------------|

Chorus 1
G|-------------------------------------------------------------------------|
D|---------2---------------------------------------------------------------|
A|-----------2---5--------0-3---2-0----------------------------------------|
D|-2-9-0-5-----5----2-9-0-----5--------------------------------------------|

G|-------------------------------------------------------------------------|
D|---------2---------------------------------------------------------------|
A|-----------2---5---------------------------------------------------------|
D|-2-9-0-5-----5-----------------------------------------------------------|

Preverse
G|-------------------------------------------------------------------------|
D|-------------------------------------------------------------------------|
A|-------------------------------------------------------------------------|
D|-2-2-222-2--2-2-222-2----------------------------------------------------|

Verse
G|-------------------------------------------------------------------------|
D|-------------------------------------------------------------------------|
A|-------------------------------------------------------------------------|
D|-22-222-222-222-200-000-000-000-022-222-222-222-200-000-000-000----------|

G|-------------------------------------------------------------------------|
D|-------------------------------------------------------------------------|
A|-------------------------------------------------------------------------|
D|-01010-101010-101010-101010-101212-121212-121212-121212------------------|

G|-------------------------------------------------------------------------|
D|-------------------------------------------------------------------------|
A|-------------------------------------------------------------------------|
D|-121010-101010-101010-101010-101212-121212-121212-121212-12\-------------|

Prechorus
G|-------------------------------------------------------------------------|
D|-------------------------------------------------------------------------|
A|-------------------------------------------------------------------------|
D|-2-2-222-2-5-5-777-7-10--2-2-222-2-5-5-000-0-----------------------------|

Chorus 2
G|-------------------------------------------------------------------------|
D|---------2---------------------------------------------------------------|
A|-----------2---5--------0-3---2-0----------------------------------------|
D|-2-9-0-5-----5----2-9-0-----5--------------------------------------------|

G|-------------------------------------------------------------------------|
D|---------2---------------------------------------------------------------|
A|-----------2---5---------0-3---2-0---------------------------------------|
D|-2-9-0-5-----5-----2-9-0-----5-------------------------------------------|

Interlude
G|-------------------------------------------------------------------------|
D|-------------------------------------------------------------------------|
A|-------------------------------------------------------------------------|
D|-2-2-222-2-5-5-777-7-10--2-2-222-2-5-5-000-0-----------------------------|

Chorus 3
G|-------------------------------------------------------------------------|
D|---------2---------------------------------------------------------------|
A|-----------2---5--------0-3---2-0----------------------------------------|
D|-2-9-0-5-----5----2-9-0-----5--------------------------------------------|

G|-------------------------------------------------------------------------|
D|---------2---------------------------------------------------------------|
A|-----------2---5---------0-3---2-0---------------------------------------|
D|-2-9-0-5-----5-----2-9-0-----5-------------------------------------------|

Ending
G|-------------------------------------------------------------------------|
D|-------------------------------------------------------------------------|
A|-------------------------------------------------------------------------|
D|-2-2-222-2--2-2-222-2----------------------------------------------------|

Suggest correction
Give kudos to tab author, rate the tab!
1 2 3 4 5
comments
print report bad tab
1 comment total.
0 reply
rogerpirks 71 wrote on July 12 2013, 05:43 pm

This tab looks very close to the actual sound of bass in the song. But I heard some differences in chorus.


These notes corrected.
----------------------
| | |
V V V
G|-------------------------------------------------------------------------|
D|---------2---0-----------------------------------------------------------|
A|-------0---2---0--------0-3---2-0----------------------------------------|
D|-2-9-0------------2-9-0-----5--------------------------------------------|

guest
You may want to rate the tab now too:
select rating
Please do not post tabs as comments. Select "correction" instead!