Oops, an error
Loading. Please wait.

Looking Glass Tab

version 2
version 2

Whole song

Interactive

5,562 views 9 this week
3 commentsread comments
1 2 3 4 5
excellent!
x 5
add to favorites
launch autoscroll
font size
0
reset
how to read this tab
guitar tuner
Tab Pro tools
  • play this tab
  • loop segment
  • change instrument
  • show fretboard
  • metronome
×
Best way to learn
"Looking Glass"
Autoscroll
slow
fast
+/-
esc
set tempo
stop
Contributor
Difficulty
Tuning
novice
D A D G B E
Tabbed By: SpookyLoop

Intro
e|-------------------------------------------------------------------------|
B|-------------------------------------------------------------------------|
G|-------------------------------------------------------------------------|
D|-2-2--22-2--55-5--77-7--10--2-2--22-2--55-5--00-0------------------------|
A|-2-2--22-2--55-5--77-7--10--2-2--22-2--55-5--00-0------------------------|
D|-2-2--22-2--55-5--77-7--10--2-2--22-2--55-5--00-0------------------------|

Verse
e|-------------------------------------------------------------------------|
B|-------------------------------------------------------------------------|
G|-------------------------------------------------------------------------|
D|---9-7h9-12-9-7h9----9-7h9-12-99-77-99--X2-------------------------------|
A|-7-----------------7-----------------------------------------------------|
D|-------------------------------------------------------------------------|

e|-7-777-------------------------------------------------------------------|
B|-------5--X16------------------------------------------------------------|
G|-------------------------------------------------------------------------|
D|-------------------------------------------------------------------------|
A|-------------------------------------------------------------------------|
D|-------------------------------------------------------------------------|

Pre Chorus
e|-------------------------------------------------------------------------|
B|-------------------------------------------------------------------------|
G|-------------------------------------------------------------------------|
D|-2-2--22-2--55-5--77-7--10--2-2--22-2--55-5--00-0------------------------|
A|-2-2--22-2--55-5--77-7--10--2-2--22-2--55-5--00-0------------------------|
D|-2-2--22-2--55-5--77-7--10--2-2--22-2--55-5--00-0------------------------|

Chorus 1
e|-------------------------------------------------------------------------|
B|-------------------------------------------------------------------------|
G|---------2-----7--------2-5---4-2---------2-----7------------------------|
D|-2-9-5-0-2-2-5-7--2-9-0-2-5-5-4-2-2-9-5-0-2-2-5-5------------------------|
A|-2-9-5-0-0-2-5-5--2-9-0-0-3-5-2-0-2-9-5-0-0-2-5-5------------------------|
D|-2-9-5-0---2-5----2-9-0-----5-----2-9-5-0---2-5--------------------------|

Pre Verse
e|-------------------------------------------------------------------------|
B|-------------------------------------------------------------------------|
G|-------------------------------------------------------------------------|
D|-2-2--22-2--2-2--22-2----------------------------------------------------|
A|-2-2--22-2--2-2--22-2----------------------------------------------------|
D|-2-2--22-2--2-2--22-2----------------------------------------------------|

Verse

Pre Chorus

Chorus 2
e|-------------------------------------------------------------------------|
B|-------------------------------------------------------------------------|
G|---------2-----7--------2-5---4-2---------2-----7-------2-5---4-2--------|
D|-2-9-5-0-2-2-5-7--2-9-0-2-5-5-4-2-2-9-5-0-2-2-5-5-2-9-0-2-5-5-4-2--------|
A|-2-9-5-0-0-2-5-5--2-9-0-0-3-5-2-0-2-9-5-0-0-2-5-5-2-9-0-2-3-5-2-0--------|
D|-2-9-5-0---2-5----2-9-0-----5-----2-9-5-0---2-5---2-9-0-----5------------|

Pre Chorus 

Chorus 2

Ending
e|-------------------------------------------------------------------------|
B|-------------------------------------------------------------------------|
G|-------------------------------------------------------------------------|
D|-2-2--22-2--2-2--22-2----------------------------------------------------|
A|-2-2--22-2--2-2--22-2----------------------------------------------------|
D|-2-2--22-2--2-2--22-2----------------------------------------------------|
comments
print report bad tab
3 comments total.
0 reply
Forsakensoul wrote on August 15 2008, 01:09 pm

Really great tab! The verse is really spot on, thanks! ^^

0 reply
SpookyLoop wrote on August 17 2008, 03:23 am

You're welcome, more to come. :)

0 reply
BenLegend wrote on August 17 2010, 08:01 am

Great tab :D but the beginning bits a bit wrong they only play the 5 bit twice not 3 times.

e|-------------------------------------------------------------------------|
B|-------------------------------------------------------------------------|
G|-------------------------------------------------------------------------|
D|-2-2--22-2--55--77-7--10--2-2--22-2--55-5--00-0------------------------|
A|-2-2--22-2--55--77-7--10--2-2--22-2--55-5--00-0------------------------|
D|-2-2--22-2--55--77-7--10--2-2--22-2--55-5--00-0------------------------|

I want to post or [tab]
guest
You may want to rate the tab now too:
select rating
Please do not post tabs as comments. Select "correction" instead!