Oops, an error
Loading. Please wait.

Neverland Bass Tab

270 views 1 this week
no commentswrite comment
1 2 3 4 5
please rate
add to favorites
launch autoscroll
font size
0
reset
guitar tuner
Autoscroll
slow
fast
+/-
esc
set tempo
stop
Help us to improve Ultimate-Guitar.com Take our survey!
×
Contributor
Difficulty
Tuning
Necrotic 985
novice
D A D G B E
-------------------------------------------------------------------------------
			     Neverland - The Birthday Massacre
-------------------------------------------------------------------------------

Tabbed By : Necrotic
e-mail: joelschwallier@gmail.com

Tuning: Drop D

Intro
G|----------------------------------------------------------------|
D|----------------------------------------------------------------|
A|3-3---3---3-3-3-------------------------------------------------|
D|----------------5-5-7-7-3-3-5-5-7-7---7---7-7-7-5-5-7-x-3-3-5-3-|

G|----------------------------------------------------------------|
D|----------------------------------------------------------------|
A|3-3---3---3-3-3---------5-5-5-5---------------------------------|
D|----------------5-5-7-7---------7-7---7---7-7-7-5-5-7-x-3-3-5-3-|

Verse
G|----------------------------------------------------------------|
D|----------------------------------------------------------------|
A|3-3-3-3-3-3-3-3-------------------------------------------------|
D|----------------5-5-7-7-3-3-5-5-7-7-7-7-7-7-7-7-5-5-7-x-3-3-3-3-|

G|----------------------------------------------------------------|
D|----------------------------------------------------------------|
A|3-3-3-3-3-3-3-3---------5-5-5-5---------------------------------|
D|----------------5-5-7-7---------7-7-7-7-7-7-7-7-5-5-7-x-3-3-3-3-|

G|----------------------------------------------------------------|
D|----------------------------------------------------------------|
A|3-3-3-3-3-3-3-3-------------------------------------------------|
D|----------------5-5-7-7-3-3-5-5-7-7-7-7-7-7-7-7-5-5-7-x-3-3-3-3-|

G|----------------------------------------------------------------|
D|----------------------------------------------------------------|
A|3-3-3-3-3-3-3-3---------5-5-5-5---------------------------------|
D|----------------5-5-7-7---------7-7-7-7-7-7-7-7-5-5-7-x-3-3-----|

Chorus
G|-----------------------------------------------------------------------------------|
D|-----------------------------------------------------------------------------------|
A|3------------------------0-0-0---3-3-3-3-3-------------------------0-0-0-3---------|
D|--------5--------3-------------------------------5---3---5-----------------5-5-5-5-|x2

Post-Chorus
G|----------------------------------------------------------------|
D|----------------------------------------------------------------|
A|3-3---3---3-3-3-------------------------------------------------|
D|----------------5-5-7-7-3-3-5-5-7-7---7---7-7-7-5-5-7-x-3-3-5-3-|

G|----------------------------------------------------------------|
D|----------------------------------------------------------------|
A|3-3---3---3-3-3---------5-5-5-5---------------------------------|
D|----------------5-5-7-7---------7-7---7---7-7-7-5-5-7-x-3-3-5-3-|

Verse
G|----------------------------------------------------------------|
D|----------------------------------------------------------------|
A|3-3-3-3-3-3-3-3-------------------------------------------------|
D|----------------5-5-7-7-3-3-5-5-7-7-7-7-7-7-7-7-5-5-7-x-3-3-3-3-|

G|----------------------------------------------------------------|
D|----------------------------------------------------------------|
A|3-3-3-3-3-3-3-3---------5-5-5-5---------------------------------|
D|----------------5-5-7-7---------7-7-7-7-7-7-7-7-5-5-7-x-3-3-3-3-|

G|----------------------------------------------------------------|
D|----------------------------------------------------------------|
A|3-3-3-3-3-3-3-3-------------------------------------------------|
D|----------------5-5-7-7-3-3-5-5-7-7-7-7-7-7-7-7-5-5-7-x-3-3-3-3-|

G|----------------------------------------------------------------|
D|----------------------------------------------------------------|
A|3-3-3-3-3-3-3-3---------5-5-5-5---------------------------------|
D|----------------5-5-7-7---------7-7-7-7-7-7-7-7-5-5-7-x-3-3-----|

Chorus
G|-----------------------------------------------------------------------------------|
D|-----------------------------------------------------------------------------------|
A|3------------------------0-0-0---3-3-3-3-3-------------------------0-0-0-3---------|
D|--------5--------3-------------------------------5---3---5-----------------5-5-5-5-|x2

Bridge
G|--------------------------------|
D|--------------------------------|
A|3-------------------------------|
D|--------5------7--------3-------|x4

G|----------------------------------------------------------------|
D|----------------------------------------------------------------|
A|3-3-3-3-3-3-3-3-------------------------------------------------|
D|----------------5-5-5-5-5-5-5-5-7-7-7-7-7-7-7-7-3-3-3-3-3-3-3-3-|x2

G|--------------------------------------|
D|--------------------------------------|
A|3-3-3-3-3-3-3-3-----------------------|
D|----------------5-5-5-5-5-5-5-5-------|

Chorus
G|-----------------------------------------------------------------------------------|
D|-----------------------------------------------------------------------------------|
A|3------------------------0-0-0---3-3-3-3-3-------------------------0-0-0-3---------|
D|--------5--------3-------------------------------5---3---5-----------------5-5-5-5-|x2




| /  slide up
| \  slide down
| h  hammer-on
| p  pull-off
| ~  vibrato
| +  harmonic
| x  Mute note
===============================================================================
comments
We did not receive enough feedback on this tab! Please rate:
print report bad tab
1 2 3 4 5
I want to post or [tab]
guest
You may want to rate the tab now too:
select rating
Please do not post tabs as comments. Select "correction" instead!