Oops, an error
Loading. Please wait.

Nevermind Tab

version 1
version 1

Intro

Interactive

686 views 1 this week
no commentswrite comment
1 2 3 4 5
3 more votes to show rating
add to favorites
launch autoscroll
font size
0
reset
how to read this tab
guitar tuner
Autoscroll
slow
fast
+/-
esc
set tempo
stop
Help us to improve Ultimate-Guitar.com Take our survey!
×
Author
Difficulty
novice
I haven't gotten the entire thing down just yet, but this is the main riff of both the 
along with what's played during the verses.

Tuning: DADGBe

()=Palm Mute
\=Slide

Guitar 1=Lead
Guitar 2=Rhythm

Intro
(you might want to listen to the song to get the rhythm right)

(Guitar 1&2)
e|-----------------------------------------------------------------|
B|-----------------------------------------------------------------|
G|-----------------------------------------------------------------|
D|--11--11--11-11(11)--6--8--4--1--8--8--8-8(8)--6-6-6(6)--4-4-4(4)|
A|--11--11--11-11(11)--6--8--4--1--8--8--8-8(8)--6-6-6(6)--4-4-4(4)|
D|--11--11--11-11(11)--6--8--4--1--8--8--8-8(8)--6-6-6(6)--4-4-4(4)|


Both guitars play this piece at the same time, but guitar 2 will have just a minor 
from what guitar 1 will be playing.

(Guitar 1)
e|-------------------------------------------------------------------|
B|-------------------------------------------------------------------|
G|-------------------------------------------------------------------|
D|--11--11--11-11(11)--6--8--12--12--8--8--8-8(8)--6-6-6(6)--4-4-4(4)|
A|--11--11--11-11(11)--6--8--12--12--8--8--8-8(8)--6-6-6(6)--4-4-4(4)|
D|--11--11--11-11(11)--6--8--12--12--8--8--8-8(8)--6-6-6(6)--4-4-4(4)|

(Guitar 2)
e|-------------------------------------------------------------------|
B|-------------------------------------------------------------------|
G|-------------------------------------------------------------------|
D|--11--11--11-11(11)--6--8--12--8--8--8--8-8(8)--6-6-6(6)--4-4-4(4)-|
A|--11--11--11-11(11)--6--8--12--8--8--8--8-8(8)--6-6-6(6)--4-4-4(4)-|
D|--11--11--11-11(11)--6--8--12--8--8--8--8-8(8)--6-6-6(6)--4-4-4(4)-|


Verses

(Guitar 2)
e|-----------------------------------------------------------------------|
B|-----------------------------------------------------------------------|
G|-----------------------------------------------------------------------|
D|-----------------------------------------------------------------------|
A|-----------------------------------------------------------------------|
D|--11-11-11-11-11-11-6-6-6-6-8-8-4-4-1-1-8-8-8-8-8-8-8-8-6-6-6-6-4-4-4-4|

e|--------------------------------------------------------------------------|
B|--------------------------------------------------------------------------|
G|--------------------------------------------------------------------------|
D|--------------------------------------------------------------------------|
A|--------------------------------------------------------------------------|
D|--11-11-11-11-11-11-6-6-6-6-8-8-12-12\-8-8-8-8-8-8-8-8-8-8-6-6-6-6-4-4-4-4|

I haven't gotten the chorus or the rest done yet, but I'll try and update this tab after 
get the rest down.
Suggest correction
Give kudos to tab author, rate the tab!
1 2 3 4 5
comments
print report bad tab
guest
You may want to rate the tab now too:
select rating
Wanna post a correction for this tab? Suggest correction