Oops, an error
Loading. Please wait.

Play Dead Bass Tab

703 views 3 this week
no commentswrite comment
1 2 3 4 5
please rate
add to favorites
launch autoscroll
font size
0
reset
guitar tuner
Tab Pro tools
  • play this tab
  • loop segment
  • change instrument
  • show fretboard
  • metronome
×
Best way to learn
"Play Dead"
Autoscroll
slow
fast
+/-
esc
set tempo
stop
Contributor
-------------------------------------------------------------------------------
			     Play Dead - The Birthday Massacre
-------------------------------------------------------------------------------

Tabbed By : Necrotic
e-mail: joelschwallier@gmail.com

Tuning: Drop D

	For verses, listen to the bass drum for beats to play.

Intro
G|--------------------------------|
D|--------------------------------|
A|2---2-2-2-2-2/5---5-5-0-0-0-0-0-|
D|--------------------------------|x8

Verse
G|----------------------------------------------------------------|
D|----------------------------------------------------------------|
A|2-2----22-2----22-2---2/5-5-5-5-0-0----00-0----00-0----00-0----0|
D|----------------------------------------------------------------|x4

Chorus
G|--------------------------------|
D|--------------------------------|
A|2---2-2-2-2-2/5---5-5-0-0-0-0-0-|
D|--------------------------------|x8

Verse
G|----------------------------------------------------------------|
D|----------------------------------------------------------------|
A|2-2----22-2----22-2---2/5-5-5-5-0-0----00-0----00-0----00-0----0|
D|----------------------------------------------------------------|x4

Chorus
G|--------------------------------|
D|--------------------------------|
A|2---2-2-2-2-2/5---5-5-0-0-0-0-0-|
D|--------------------------------|x7

(Slap this part)
G|--------------------------------|
D|--------------------------------|
A|0---2---0-2-/-5---0-------------|
D|----------------------0-1-4-1-4-|

Verse/Bridge
G|----------------------------------------------------------------|
D|----------------------------------------------------------------|
A|2-2----22-2----22-2---2/5-5-5-5-0-0----00-0----00-0----00-0----0|
D|----------------------------------------------------------------|x4

Chorus
G|--------------------------------|
D|--------------------------------|
A|2---2-2-2-2-2/5---5-5-0-0-0-0-0-|
D|--------------------------------|x8

End - Slow gradual slide
G|---------|
D|---------|
A|---------|
D|9--/--1--|


| /  slide up
| \  slide down
| h  hammer-on
| p  pull-off
| ~  vibrato
| +  harmonic
| x  Mute note
===============================================================================
comments
We did not receive enough feedback on this tab! Please rate:
print report bad tab
1 2 3 4 5
I want to post or [tab]
guest
You may want to rate the tab now too:
select rating
Please do not post tabs as comments. Select "correction" instead!