Oops, an error
Loading. Please wait.

Play With Fire Tab

335 views 1 this week
no commentswrite comment
1 2 3 4 5
1 last vote to show rating
add to favorites
launch autoscroll
font size
0
reset
how to read this tab
guitar tuner
Autoscroll
slow
fast
+/-
esc
set tempo
stop
Help us to improve Ultimate-Guitar.com Take our survey!
×
Author
Difficulty
Tuning
novice
D A D G B E
-------------------------------------------------------------------------------
                             PLAY WITH FIRE - The Birthday Massacre
-------------------------------------------------------------------------------
Tabbed by: Kiera
E-mail: evanescenceguitarist@yahoo.com

Tuning: Drop D

like I did with Leaving Tonight (and as I'll probably do with the rest of the
 songs), there isn't any actual guitar for most of the song so I just put in
 the notes you could play with the song. 
**This song has the same notes played in a similar pattern throughout

Intro x2(bassline more so)
e|--------------------------------------------------------------------------|
B|--------------------------------------------------------------------------|
G|--------------------------------------------------------------------------|
D|--------------------------------------------------------------------------|
A|--------------------------------------------------------------------------|
D|-5------10------6------10------3------10------6------10-------------------|


Verse (same thing)
e|--------------------------------------------------------------------------|
B|--------------------------------------------------------------------------|
G|--------------------------------------------------------------------------|
D|--------------------------------------------------------------------------|
A|--------------------------------------------------------------------------|
D|-5------10------6------10------3------10------6------10-------------------|


Chorus (the notes in ('s are just there to play for fun, it's basically the
 keyboard put on guitar for just those moments.)
e|--------------------------------------------------------------------------|
B|--------------------------------------------------------------------------|
G|-------------------(8--0--7----)------------------------------------------|
D|---------------------------------------------------------(13------12)-----|
A|-5-5-5-5-5-5-5-5-5---------------10-10-10-10-10-10-10-10-(----10----)-----|
D|-5-5-5-5-5-5-5-5-5---------------10-10-10-10-10-10-10-10------------------|


e|--------------------------------------------------------------------------|
B|--------------------------------------------------------------------------|
G|--------------------------------------------------------------------------|
D|-------------------------------------------------------(12------12--13--)-|
A|-6-6-6-6-6-6-6-6---------------10-10-10-10-10-10-10-10-(----------------)-|
D|-6-6-6-6-6-6-6-6---------------10-10-10-10-10-10-10-10-(----10----------)-|


e|--------------------------------------------------------------------------|
B|--------------------------------------------------------------------------|
G|-------------------(8--0--7----)------------------------------------------|
D|---------------------------------------------------------(13------12)-----|
A|-3-3-3-3-3-3-3-3-3---------------10-10-10-10-10-10-10-10-(----10----)-----|
D|-3-3-3-3-3-3-3-3-3---------------10-10-10-10-10-10-10-10------------------|


e|--------------------------------------------------------------------------|
B|--------------------------------------------------------------------------|
G|--------------------------------------------------------------------------|
D|-------------------------------------------------------(12------12--13--)-|
A|-6-6-6-6-6-6-6-6---------------10-10-10-10-10-10-10-10-(----------------)-|
D|-6-6-6-6-6-6-6-6---------------10-10-10-10-10-10-10-10-(----10----------)-|


Verse
Chorus

Bridge
e|--------------------------------------------------------------------------|
B|--------------------------------------------------------------------------|
G|--------------------------------------------------------------------------|
D|--------------------------------------------------------------------------|
A|-5-(x16)-----------10-(x16)-----------6-(x16)----------10 (x16)-----------|
D|-5-----------------10-----------------6----------------10-----------------|
 |
e|--------------------------------------------------------------------------|
B|-/15---------------13-----------------------------------------------------|
G|--------------------------------------13----------------12----------------|
D|--------------------------------------------------------------------------|
A|--------------------------------------------------------------------------|
D|--------------------------------------------------------------------------|


e|--------------------------------------------------------------------------|
B|--------------------------------------------------------------------------|
G|--------------------------------------------------------------------------|
D|--------------------------------------------------------------------------|
A|-3-(x16)-----------10-(x16)-----------6-(x16)----------10 (x16)-----------|
D|-3-----------------10-----------------6----------------10-----------------|
 |
e|--------------------------------------------------------------------------|
B|-15----16-----------------------------------------------------------------|
G|--------------------------------------15--------13-----12-----------------|
D|--------------------------------------------------------------------------|
A|--------------------------------------------------------------------------|
D|--------------------------------------------------------------------------|


Break 
e|--------------------------------------------------------------------------|
B|--------------------------------------------------------------------------|
G|--------------------------------------------------------------------------|
D|--------------------------------------------------------------------------|
A|--------------------------------------------------------------------------|
D|-5-5-5-5-5-5-5-5--------------10-10-10-10-10-10-10-10---------------------|

e|--------------------------------------------------------------------------|
B|--------------------------------------------------------------------------|
G|--------------------------------------------------------------------------|
D|--------------------------------------------------------------------------|
A|--------------------------------------------------------------------------|
D|-6-6-6-6-6-6-6-6--------------10-10-10-10-10-10-10-10---------------------|

e|--------------------------------------------------------------------------|
B|--------------------------------------------------------------------------|
G|--------------------------------------------------------------------------|
D|--------------------------------------------------------------------------|
A|--------------------------------------------------------------------------|
D|-3-3-3-3-3-3-3-3--------------10-10-10-10-10-10-10-10---------------------|

e|--------------------------------------------------------------------------|
B|--------------------------------------------------------------------------|
G|--------------------------------------------------------------------------|
D|--------------------------------------------------------------------------|
A|--------------------------------------------------------------------------|
D|-6-6-6-6-6-6-6-6--------------10-10-10-10-10-10-10-10---------------------|


Chorus

END

thanks for looking!
I'm working on doing the rest of the songs from this album :)
************************************

| /   slide up
| \   slide down
| h   hammer-on
| p   pull-off
| ~   vibrato
| +   harmonic
| x   Mute note
| b   Bend
| pb  Pre-bend
| br  Bend release
| pbr Pre-bend release
| brb Bend release bend

************************************
Suggest correction
Give kudos to tab author, rate the tab!
1 2 3 4 5
comments
print report bad tab
guest
You may want to rate the tab now too:
select rating
Wanna post a correction for this tab? Suggest correction