Oops, an error
Loading. Please wait.

Promise Me Bass Tab

version 2
version 2

Whole song

76 views 1 this week
no commentswrite comment
1 2 3 4 5
please rate
add to favorites
launch autoscroll
font size
0
reset
guitar tuner
Autoscroll
slow
fast
+/-
esc
set tempo
stop
Help us to improve Ultimate-Guitar.com Take our survey!
×
The Birthday Massacre - Promise Me
Album: Nothing and Nowhere 
Tabbed by: MelVinMaSsaCrE

Tuning: Drop D (D-A-D-G, low to high)

Intro Bass begins at 0:17
G|----------------------------------------------------------------|
D|----------------------------------------------------------------|
A|----------------------------------------------------------------|
D|0-0-0-0-0-0-0-0-7-7-7-7-7-7-7-7-5-5-5-5-5-5-5-5-3-3-3-3-7-7-3-3-|

G|----------------------------------------------------------------|
D|----------------------------------------------------------------|
A|----------------3-3-3-3-3-3-3-3---------------------------------|
D|3-3-3-3-3-3-3-3-----------------5-5-5-5-5-5-5-5-0-0-0-0-7-7-3-3-|

Verse 0:35 "We don't know what time we'll be there…"
G|----------------------------------------------------------------| 
D|----------------------------------------------------------------|
A|----------------------------------------------------------------|
D|0~--------------7~--------------3~--------------5~--------------|x4

Chorus 1:11 "Promise me to pass the time…"
G|----------------------------------------------------------------|
D|----------------------------------------------------------------|
A|----------------------------------------------------------------|
D|0-0-0-0-0-0-0-0-7-7-7-7-7-7-7-7-5-5-5-5-5-5-5-5-3-3-3-3-7-7-3-3-|

G|----------------------------------------------------------------|
D|----------------------------------------------------------------|
A|----------------3-3-3-3-3-3-3-3---------------------------------|
D|3-3-3-3-3-3-3-3-----------------5-5-5-5-5-5-5-5-0-0-0-0-7-7-3-3-|

Verse 1:29 "Though we all want to be noticed…"
G|----------------------------------------------------------------|
D|----------------------------------------------------------------|
A|----------------------------------------------------------------|
D|0~--------------7~--------------3~--------------5~--------------|x4

Chorus 2:04 "Promise me to pass the time…"
G|----------------------------------------------------------------|
D|----------------------------------------------------------------|
A|----------------------------------------------------------------|
D|0-0-0-0-0-0-0-0-7-7-7-7-7-7-7-7-5-5-5-5-5-5-5-5-3-3-3-3-7-7-3-3-|

G|----------------------------------------------------------------|
D|----------------------------------------------------------------|
A|----------------3-3-3-3-3-3-3-3---------------------------------|
D|3-3-3-3-3-3-3-3-----------------5-5-5-5-5-5-5-5-0-0-0-0-7-7-3-3-|

Bridge 2:22 No bass - resumes at 2:57 after "…as we did the night before"
G|----------------------------------------------------------------|
D|----------------------------------------------------------------|
A|----------------------------------------------------------------|
D|0-0-0-0-0-0-0-0-7-7-7-7-7-7-7-7-3-3-3-3-3-3-3-3-5-5-5-5-5-5-5-5-|x4

Outro 3:33 (x2)
G|----------------------------------------------------------------|
D|----------------------------------------------------------------|
A|----------------------------------------------------------------|
D|0-0-0-0-0-0-0-0-7-7-7-7-7-7-7-7-5-5-5-5-5-5-5-5-3-3-3-3-7-7-3-3-|

G|----------------------------------------------------------------|
D|----------------------------------------------------------------|
A|----------------3-3-3-3-3-3-3-3---------------------------------|
D|3-3-3-3-3-3-3-3-----------------5-5-5-5-5-5-5-5-0-0-0-0-7-7-3-3-|

I look forward to your ratings and comments. Enjoy and have fun!

Legend: 
~ =let ring
Suggest correction
Give kudos to tab author, rate the tab!
1 2 3 4 5
comments
print report bad tab
guest
You may want to rate the tab now too:
select rating
Wanna post a correction for this tab? Suggest correction