Oops, an error
Loading. Please wait.

Red Stars Bass Tab

version 1
version 1

Whole song

Interactive

3,680 views 3 this week
1 commentread comment
1 2 3 4 5
please rate
add to favorites
launch autoscroll
font size
0
reset
guitar tuner
Tab Pro tools
  • play this tab
  • loop segment
  • change instrument
  • show fretboard
  • metronome
×
Best way to learn
"Red Stars"
Autoscroll
slow
fast
+/-
esc
set tempo
stop
Contributor
Difficulty
Tuning
novice
D A D G B E
-------------------------------------------------------------------------------
			     Red Stars - The Birthday Massacre
-------------------------------------------------------------------------------

Tabbed By : Necrotic
e-mail: joelschwallier@gmail.com

Tuning: Drop D

Intro
G|--------------------------------|
D|--------------------------------|
A|--------------------------------|
D|222-222-222-222-222-222-222-8/2-|x4

Verse
G|--------------------------------------------------------------------|
D|--------------------------------------------------------------------|
A|--------------------------------------------------------------------|
D|4-4-4-4-4-4-4-4-4-4-4-4-4-4-4-4/8-8-8-8-8-8-8-8-8-8-8-8/11-11-11-11-|

G|------------------------------------------------------------------------|
D|------------------------------------------------------------------------|
A|------------------------------------------------------------------------|
D|4-4-4-4-4-4-4-4-4-4-4-4-4-4-4-4/8-8-8-8-8-8-8-8/11-11-11-11-11-11-11-11-|

G|------------------------------------------------------------------------|
D|------------------------------------------------------------------------|
A|------------------------------------------------------------------------|
D|4-4-4-4-4-4-4-4-11-11-11-11-11-11-11-11-4-4-4-4-4-4-4-4-8-8-8-8-8-8-8-8-|

G|---------------------------------------------------------------------------|
D|---------------------------------------------------------------------------|
A|---------------------------------------------------------------------------|
D|4-4-4-4-4-4-4-4-11-11-11-11-11-11-11-11-8-8-8-8-8-8-8-8-6-6-6-6-11-11-11-11|

Chorus
G|---------------------------------------------------------------------------|
D|---------------------------------------------------------------------------|
A|---------------------------------------------------------------------------|
D|4-4-4-4-4-4-4-4-11-11-11-11-11-11-11-11-4-4-4-4-4-4-4-4-8-8-8-8/11-11-11-11|

G|---------------------------------------------------------------------------|
D|---------------------------------------------------------------------------|
A|---------------------------------------------------------------------------|
D|11-11-11-11-11-11-11-11-8-8-8-8-8-8-8-8-6-6-6-6-6-6-6-6-4-4-4-4/11-11-11-11|

Pre-Verse
G|--------------------------------|
D|--------------------------------|
A|--------------------------------|
D|222-222-222-222-222-222-222-8/2-|x2

Verse
G|--------------------------------------------------------------------|
D|--------------------------------------------------------------------|
A|--------------------------------------------------------------------|
D|4-4-4-4-4-4-4-4-4-4-4-4-4-4-4-4/8-8-8-8-8-8-8-8-8-8-8-8/11-11-11-11-|

G|------------------------------------------------------------------------|
D|------------------------------------------------------------------------|
A|------------------------------------------------------------------------|
D|4-4-4-4-4-4-4-4-4-4-4-4-4-4-4-4/8-8-8-8-8-8-8-8/11-11-11-11-11-11-11-11-|

G|------------------------------------------------------------------------|
D|------------------------------------------------------------------------|
A|------------------------------------------------------------------------|
D|4-4-4-4-4-4-4-4-11-11-11-11-11-11-11-11-4-4-4-4-4-4-4-4-8-8-8-8-8-8-8-8-|

G|---------------------------------------------------------------------------|
D|---------------------------------------------------------------------------|
A|---------------------------------------------------------------------------|
D|4-4-4-4-4-4-4-4-11-11-11-11-11-11-11-11-8-8-8-8-8-8-8-8-6-6-6-6-11-11-11-11|

Chorus
G|---------------------------------------------------------------------------|
D|---------------------------------------------------------------------------|
A|---------------------------------------------------------------------------|
D|4-4-4-4-4-4-4-4-11-11-11-11-11-11-11-11-4-4-4-4-4-4-4-4-8-8-8-8/11-11-11-11|

G|---------------------------------------------------------------------------|
D|---------------------------------------------------------------------------|
A|---------------------------------------------------------------------------|
D|11-11-11-11-11-11-11-11-8-8-8-8-8-8-8-8-6-6-6-6-6-6-6-6-4-4-4/11---11-11-11|

Pre-Solo
G|--------------------------------|
D|--------------------------------|
A|--------------------------------|
D|222-222-222-222-222-222-222-8/2-|x4

Solo
G|-----------------------------------------------------------|
D|-----------------------------------------------------------|
A|-----------------------------------------------------------|
D|---1/11----11/4----4/11----11/6----6/11/-----11/13---13/11-|

Outro
G|---------------------------------|
D|---------------------------------|
A|---------------------------------|
D|222-222-222-222-222-222-222-8/2--|x4

| /  slide up
| \  slide down
| h  hammer-on
| p  pull-off
| ~  vibrato
| +  harmonic
| x  Mute note
===============================================================================
comments
We did not receive enough feedback on this tab! Please rate:
print report bad tab
1 2 3 4 5
1 comment total.
0 reply
Necrotic wrote on January 7 2009, 05:58 pm

Intro is on the first fret.

I want to post or [tab]
guest
You may want to rate the tab now too:
select rating
Please do not post tabs as comments. Select "correction" instead!