Oops, an error
Loading. Please wait.

Red Stars Bass Tab

version 2
version 2

Whole song

Interactive

554 views 1 this week
no commentswrite comment
1 2 3 4 5
please rate
add to favorites
launch autoscroll
font size
0
reset
guitar tuner
Tab Pro tools
  • play this tab
  • loop segment
  • change instrument
  • show fretboard
  • metronome
×
Best way to learn
"Red Stars"
Autoscroll
slow
fast
+/-
esc
set tempo
stop
Contributor
Difficulty
Tuning
novice
D A D G B E
Intro
G|-------------------------------|
D|-------------------------------|
A|-------------------------------|
D|-011-011-011-011-011-011-011-0-| x4

Verse
G|-----------------------------------------------------------------------|
D|-----------------------------------------------------------------------|
A|-----------------------------------------------------99999999/44444444-|
D|-1111111111111111-444444444444/8888-1111111111111111-------------------|

G|-----------------------|
D|-----------------------|
A|-2-2---4-4---------4-4-|
D|-------------1-1-------| x2

Chorus
G|-------------------------------------------------------------------------|
D|-------------------------------------------------------------------------|
A|----------44444444----------22224444----------44444444-22222222-----4444-|
D|-11111111----------66666666----------11111111-------------------4444-----|

Pre-Verse
G|-------------------------------|
D|-------------------------------|
A|-------------------------------|
D|-011-011-011-011-011-011-011-0-| x2

Verse
G|-----------------------------------------------------------------------|
D|-----------------------------------------------------------------------|
A|-----------------------------------------------------99999999/44444444-|
D|-1111111111111111-444444444444/8888-1111111111111111-------------------|

G|-----------------------|
D|-----------------------|
A|-2-2---4-4---------4-4-|
D|-------------1-1-------| x2

Chorus
G|-------------------------------------------------------------------------|
D|-------------------------------------------------------------------------|
A|----------44444444----------22224444----------44444444-22222222-----4444-|
D|-11111111----------66666666----------11111111-------------------4444-----|

Bridge 1
G|-------------------------------|
D|-------------------------------|
A|-------------------------------|
D|-011-011-011-011-011-011-011-0-| x2

G|-------------------------------|
D|-------------------------------|
A|-------------------------------|
D|-111-111-111-111-111-111-111-0-| x2

Bridge 2
G|-----------------------------------|
D|-----------------------------------|
A|-----------------------------------|
D|-1~/11---1~/11---9~--11~--13~--11~-|

Outro
G|-------------------------------|
D|-------------------------------|
A|-------------------------------|
D|-011-011-011-011-011-011-011-0-| x2

G|-------------------------------|
D|-------------------------------|
A|-------------------------------|
D|-111-111-111-111-111-111-111-0-| x2
comments
We did not receive enough feedback on this tab! Please rate:
print report bad tab
1 2 3 4 5
I want to post or [tab]
guest
You may want to rate the tab now too:
select rating
Please do not post tabs as comments. Select "correction" instead!