Oops, an error
Loading. Please wait.

Remember Me Bass Tab

version 1
version 1

Whole song

Interactive

566 views 1 this week
no commentswrite comment
1 2 3 4 5
please rate
add to favorites
launch autoscroll
font size
0
reset
guitar tuner
Autoscroll
slow
fast
+/-
esc
set tempo
stop
Help us to improve Ultimate-Guitar.com Take our survey!
×
Author
Difficulty
Tuning
novice
D A D G B E
-------------------------------------------------------------------------------
			     Remember Me - The Birthday Massacre
-------------------------------------------------------------------------------

Tabbed By : Necrotic
e-mail: joelschwallier@gmail.com

Tuning: Drop D

Intro Bass comes in at 0:27
G|------------------------------------------------|
D|------------------------------------------------|
A|------------------------0--0--0--0--0--0--0-----|
D|2--2--2--2--2--2--2--2-----------------------5--|x4

Chorus
G|----------------------------------|
D|----------------------------------|
A|3--------------0------------------|
D|--------5--------------2----------|x2

G|----------------------------------------------------------------|
D|----------------------------------------------------------------|
A|3-3-3-3-3-3-3-3-----------------0-0-0-0-0-0-0-0-0-0-0-0-0-0-0-0-|
D|----------------5-5-5-5-5-5-5-5---------------------------------|x2

Verse
G|--------------------------------|
D|--------------------------------|
A|--------------------------------|
D|2-2-2-2-2-2-2-2-2-2-2-2-2-2-2-2-|

G|------------------------------------------------|
D|------------------------------------------------|
A|------------------------0--0--0--0--0--0--0-----|
D|2--2--2--2--2--2--2--2-----------------------5--|x5

Chorus
G|----------------------------------|
D|----------------------------------|
A|3--------------0------------------|
D|--------5--------------2----------|x2

G|----------------------------------------------------------------|
D|----------------------------------------------------------------|
A|3-3-3-3-3-3-3-3-----------------0-0-0-0-0-0-0-0-0-0-0-0-0-0-0-0-|
D|----------------5-5-5-5-5-5-5-5---------------------------------|x2

Outro
G|-----------------------------------------------------------------|
D|-----------------------------------------------------------------|
A|-----------------------------------------------------------------|
D|2-2-2-2-2-2-2-2-2-2-2-2-2-2-2-2-0-0-0-0-0-0-0-0-0-0-0-0-0-0-0-0--|x4

| /  slide up
| \  slide down
| h  hammer-on
| p  pull-off
| ~  vibrato
| +  harmonic
| x  Mute note
===============================================================================
Suggest correction
Give kudos to tab author, rate the tab!
1 2 3 4 5
comments
print report bad tab
guest
You may want to rate the tab now too:
select rating
Wanna post a correction for this tab? Suggest correction