Oops, an error
Loading. Please wait.

Science Bass Tab

version 1
version 1

Whole song

Interactive

564 views 1 this week
no commentswrite comment
1 2 3 4 5
2 more votes to show rating
add to favorites
launch autoscroll
font size
0
reset
guitar tuner
Autoscroll
slow
fast
+/-
esc
set tempo
stop
Help us to improve Ultimate-Guitar.com Take our survey!
×
Author
Difficulty
Tuning
novice
D A D G B E
-------------------------------------------------------------------------------
			     Science - The Birthday Massacre
-------------------------------------------------------------------------------

Tabbed By : Necrotic
e-mail: joelschwallier@gmail.com

Tuning: Drop D

Intro
G|--------------------------------|
D|--------------------------------|
A|2-2-2-2---------0-0-0-0-0-0-0-0-|
D|--------4-4-4-4-----------------|x2

G|--------------------------------|
D|--------------------------------|
A|2-2-2-2---------0-0-0-0-0-0-0-0-|
D|--------5-5-5-5-----------------|x2

G|--------------------------------|
D|--------------------------------|
A|2-2-2-2---------0-0-0-0-0-0-0-0-|
D|--------4-4-4-4-----------------|x2

G|--------------------------------|
D|--------------------------------|
A|2-2-2-2---------0-0-0-0-0-0-0-0-|
D|--------5-5-5-5-----------------|x2

Verse
G|-----------------------------------------------------------------|
D|-----------------------------------------------------------------|
A|2-2---2-2-2---2-0-0---0-0-0---0----------------------------------|
D|--------------------------------2-2---2-2-2---2-5-5---5-5-5---5--|x4

Pre-Chorus
G|---------------------------------|
D|---------------------------------|
A|2-2---0-2-x------2-2---0-2-x-----|
D|-----------3b-5-------------3-2--|x4

Chorus
G|---------------------------------|
D|---------------------------------|
A|2-2---0-2-x------2-2---0-2-x-----|
D|-----------3b-5-------------3-2--|x4

Verse
G|-----------------------------------------------------------------|
D|-----------------------------------------------------------------|
A|2-2---2-2-2---2-0-0---0-0-0---0----------------------------------|
D|--------------------------------2-2---2-2-2---2-5-5---5-5-5---5--|x4

Pre-Chorus
G|---------------------------------|
D|---------------------------------|
A|2-2---0-2-x------2-2---0-2-x-----|
D|-----------3b-5-------------3-2--|x4

Chorus
G|---------------------------------|
D|---------------------------------|
A|2-2---0-2-x------2-2---0-2-x-----|
D|-----------3b-5-------------3-2--|x4

Bridge
G|-----------------------------------------------------------------|
D|-----------------------------------------------------------------|
A|2---------------0------------------------------------------------|
D|--------------------------------2---------------5----------------|x2

G|-----------------------------------------------------------------|
D|-----------------------------------------------------------------|
A|2---------------0--0--0------------------------------------------|
D|--------------------------------2---------------5--5--5----------|x2
       Triplets   -  -  -                         -  -  -

Outro
G|--------------------------------|
D|--------------------------------|
A|2-2-2-2---------0-0-0-0-0-0-0-0-|
D|--------4-4-4-4-----------------|x2

G|--------------------------------|
D|--------------------------------|
A|2-2-2-2---------0-0-0-0-0-0-0-0-|
D|--------5-5-5-5-----------------|x2


| /  slide up
| \  slide down
| h  hammer-on
| p  pull-off
| ~  vibrato
| +  harmonic
| x  Mute note
===============================================================================
Suggest correction
Give kudos to tab author, rate the tab!
1 2 3 4 5
comments
print report bad tab
guest
You may want to rate the tab now too:
select rating
Wanna post a correction for this tab? Suggest correction