Oops, an error
Loading. Please wait.

Science Tab

version 1
version 1

Whole song

Interactive

1,430 views 9 this week
no commentswrite comment
1 2 3 4 5
excellent!
x 1
add to favorites
launch autoscroll
font size
0
reset
how to read this tab
guitar tuner
Tab Pro tools
  • play this tab
  • loop segment
  • change instrument
  • show fretboard
  • metronome
Autoscroll
slow
fast
+/-
esc
set tempo
stop
Contributor
Tabbed by: VioletN62
Email: jakesteffes@gmail.com

Song - Science
Artist - The Birthday Massacre
Album - Walking With Strangers

Note - Best read if you copy and paste into word using the “Courier New” font, and using 
View” instead of “Page Layout View”

Michael Falcore - Lead Guitar (DADGBe)
Rainbow - Rhythm Guitar (DADDAD)


Intro (0:20)

Falcore and Rainbow (Play 2 times)
e/D|-----------------------------------------------------------------|
B/A|-----------------------------------------------------------------|
G/D|-----------------------------------------------------------------|
D/D|-9-9-9-9-4-4-4-4-7-7-7-7-7-7-7-7-9-9-9-9-4-4-4-4-7-7-7-7-7-7-7-7-|
A/A|-9-9-9-9-4-4-4-4-7-7-7-7-7-7-7-7-9-9-9-9-4-4-4-4-7-7-7-7-7-7-7-7-|
D/D|-9-9-9-9-4-4-4-4-7-7-7-7-7-7-7-7-9-9-9-9-4-4-4-4-7-7-7-7-7-7-7-7-|

-----------------------------------------------------------------

Falcore
e|-----------------------------0---------------2-------------------|
B|-----3---3---3-2-----2---2-----3-----3---3-----2-----2-3---2-----|
G|---2---2---2-------2---2---2-------2---2---2-------2---------2-4-|
D|-----------------------------------------------------------------|
A|-----------------------------------------------------------------|
D|-----------------------------------------------------------------|
PM   .   .   .       .   .   .       .   .   .

Rainbow
D|-----------------------------------------------------------------|
A|-----------------------------------------------------------------|
D|-----------------------------------------------------------------|
D|-9-9-9-9-4-4-4-4-7-7-7-7-7-7-7-7-9-9-9-9-4-4-4-4-7-7-7-7-7-7-7-7-|
A|-9-9-9-9-4-4-4-4-7-7-7-7-7-7-7-7-9-9-9-9-4-4-4-4-7-7-7-7-7-7-7-7-|
D|-9-9-9-9-4-4-4-4-7-7-7-7-7-7-7-7-9-9-9-9-4-4-4-4-7-7-7-7-7-7-7-7-|

-----------------------------------------------------------------

Falcore
e|---------2---------------0---2---------------2-------------------|
B|-----3-------3-2-----2---------3-----3---3-----2-----2-3---2-----|
G|---2---2-----------2---2-----------2---2-----------2---------2-4-|
D|-----------------------------------------------------------------|
A|-----------------------------------------------------------------|
D|-----------------------------------------------------------------|
PM   .   .           .   .           .   .

Rainbow
D|-----------------------------------------------------------------|
A|-----------------------------------------------------------------|
D|-----------------------------------------------------------------|
D|-9-9-9-9-4-4-4-4-7-7-7-7-7-7-7-7-9-9-9-9-4-4-4-4-7-7-7-7-7-7-7-7-|
A|-9-9-9-9-4-4-4-4-7-7-7-7-7-7-7-7-9-9-9-9-4-4-4-4-7-7-7-7-7-7-7-7-|
D|-9-9-9-9-4-4-4-4-7-7-7-7-7-7-7-7-9-9-9-9-4-4-4-4-7-7-7-7-7-7-7-7-|

-----------------------------------------------------------------

Verse 1(0:54)

Falcore (Alone)
e|-----------------------------------------------------------------|
B|-----------------------------------------------------------------|
G|---44--4---4---4---22--2---2---2-------------------00--0---0---0-|
D|-----------------------------------22--2---2---2-----------------|
A|-----------------------------------------------------------------|
D|-----------------------------------------------------------------|
PM   ..  .   .   .   ..  .   .   .   ..  .   .   .   ..  .   .   .

-----------------------------------------------------------------

Falcore (Alone, play these two lines again)
e|-----------------------------------------------------------------|
B|-----------------------------------------------------------------|
G|---44--4---4---4---22--2---2---2---------------------------------|
D|-----------------------------------22--2---2---2-0-0-0-0-0-0-0---|
A|-----------------------------------------------------------------|
D|-----------------------------------------------------------------|
PM   ..  .   .   .   ..  .   .   .   ..  .   .   . . . . . . . .

-----------------------------------------------------------------

Rainbow (Come in while Falcore repeats the last two lines)
D|-----------------------------------------------------------------|
A|-----------------------------------------------------------------|
D|-----------------------------------------------------------------|
D|---9---9---9---9---7---7---7---7---2---2---2---2---5---5---5---5-|
A|---9---9---9---9---7---7---7---7---2---2---2---2---5---5---5---5-|
D|---9---9---9---9---7---7---7---7---2---2---2---2---5---5---5---5-|
PM   .   .   .   .   .   .   .   .   .   .   .   .   .   .   .   .

-----------------------------------------------------------------

Rainbow (Falcore halfway done repeating the last two lines)
D|-----------------------------------------------------------------|
A|-----------------------------------------------------------------|
D|-----------------------------------------------------------------|
D|---9---9---9---9---7---7---7---7---2---2---2---2-0-0-0-0-0-0-0---|
A|---9---9---9---9---7---7---7---7---2---2---2---2-0-0-0-0-0-0-0---|
D|---9---9---9---9---7---7---7---7---2---2---2---2-0-0-0-0-0-0-0---|
PM   .   .   .   .   .   .   .   .   .   .   .   . . . . . . . .

-----------------------------------------------------------------

Chorus (1:26)

Falcore and Rainbow (Play Twice)
e/D|--------------------------------------------------------------------|
B/A|--------------------------------------------------------------------|
G/D|--------------------------------------------------------------------|
D/D|-7-9---9---9---4-5---7---7---7---4-5---7---7---7---2-4---5---5---5-0|
A/A|-7-9---9---9---4-5---7---7---7---4-5---7---7---7---2-4---5---5---5-0|
D/D|-7-9---9---9---4-5---7---7---7---4-5---7---7---7---2-4---5---5---5-0|
PM   . .   .   .   . .   .   .   .   . .   .   .   .   . .   .   .   . .

-----------------------------------------------------------------

Falcore
e|-----------------------------------0-------------------------------|
B|-------2-----3---3-----2-----------------3-----2---3-----2---------|
G|-4---------------------------2-------------------------------2-----|
D|-------------------------------------------------------------------|
A|-------------------------------------------------------------------|
D|-------------------------------------------------------------------|

Rainbow
D|--------------------------------------------------------------------|
A|--------------------------------------------------------------------|
D|--------------------------------------------------------------------|
D|-7-9---9---9---4-5---7---7---7---4-5---7---7---7---2-4---5---5---5-0|
A|-7-9---9---9---4-5---7---7---7---4-5---7---7---7---2-4---5---5---5-0|
D|-7-9---9---9---4-5---7---7---7---4-5---7---7---7---2-4---5---5---5-0|
PM . .   .   .   . .   .   .   .   . .   .   .   .   . .   .   .   . .

Play ^this^ section twice, but on second time, don’t play the last muted chord (The 
one)

-----------------------------------------------------------------

Verse 2 (2:00)

Same thing as Verse 1, except this time Rainbow doesn’t play, so it’ll just be this

Falcore (Alone)
e|-----------------------------------------------------------------|
B|-----------------------------------------------------------------|
G|---44--4---4---4---22--2---2---2-------------------00--0---0---0-|
D|-----------------------------------22--2---2---2-----------------|
A|-----------------------------------------------------------------|
D|-----------------------------------------------------------------|
PM   ..  .   .   .   ..  .   .   .   ..  .   .   .   ..  .   .   .

-----------------------------------------------------------------

Falcore (Alone)
e|-----------------------------------------------------------------|
B|-----------------------------------------------------------------|
G|---44--4---4---4---22--2---2---2---------------------------------|
D|-----------------------------------22--2---2---2-0-0-0-0-0-0-0---|
A|-----------------------------------------------------------------|
D|-----------------------------------------------------------------|
PM   ..  .   .   .   ..  .   .   .   ..  .   .   . . . . . . . .

Play ^this^ section twice

-----------------------------------------------------------------

Chorus (2:33)

Exactly the same as the first chorus, so no need to rewrite it.

-----------------------------------------------------------------

Bridge (3:06)

Falcore/Rainbow
e/D|--------------------------------------------------------------------|
B/A|--------------------------------------------------------------------|
G/D|--------------------------------------------------------------------|
D/D|-9---------------7-----------------2-----------------5--------------|
A/A|-9---------------7-----------------2-----------------5--------------|
D/D|-9---------------7-----------------2-----------------5--------------|

-----------------------------------------------------------------

Falcore/Rainbow
e/D|--------------------------------------------------------------------|
B/A|--------------------------------------------------------------------|
G/D|--------------------------------------------------------------------|
D/D|-9---------------7-----------------2-----------------0--------------|
A/A|-9---------------7-----------------2-----------------0--------------|
D/D|-9---------------7-----------------2-----------------0--------------|

-----------------------------------------------------------------

Falcore
e|--------------------------------------------------------------------|
B|--------------------------------------------------------------------|
G|--------------------------------------------------------------------|
D|---------9----------------7p5-7------------2------------------5h4-5-|
A|--------------------------------------------------------------------|
D|--------------------------------------------------------------------|

Rainbow
D|--------------------------------------------------------------------|
A|--------------------------------------------------------------------|
D|--------------------------------------------------------------------|
D|-9---------------7--7--7--7--------2-----------------5--5--5--5-----|
A|-9---------------7--7--7--7--------2-----------------5--5--5--5-----|
D|-9---------------7--7--7--7--------2-----------------5--5--5--5-----|
PM                 .  .  .                             .  .  .

-----------------------------------------------------------------

Falcore
e|--------------------------------------------------------------------|
B|--------------------------------------------------------------------|
G|--------------------------------------------------------------------|
D|---------9----------------7p5-7------------2------------------0-----|
A|--------------------------------------------------------------------|
D|--------------------------------------------------------------------|

Rainbow
D|--------------------------------------------------------------------|
A|--------------------------------------------------------------------|
D|--------------------------------------------------------------------|
D|-9---------------7--7--7--7--------2-----------------0--0--0--0-----|
A|-9---------------7--7--7--7--------2-----------------0--0--0--0-----|
D|-9---------------7--7--7--7--------2-----------------0--0--0--0-----|
PM                 .  .  .                             .  .  .

-----------------------------------------------------------------

Outro (3:39)

Falcore
e|-----------------------------0---------------2-------------------|
B|-----3---3---3-2-----2---2-----3-----3---3-----2-----2-3---2-----|
G|---2---2---2-------2---2---2-------2---2---2-------2---------2-4-|
D|-----------------------------------------------------------------|
A|-----------------------------------------------------------------|
D|-----------------------------------------------------------------|
PM   .   .   .       .   .   .       .   .   .

Rainbow
D|-----------------------------------------------------------------|
A|-----------------------------------------------------------------|
D|-----------------------------------------------------------------|
D|-9-9-9-9-4-4-4-4-7-7-7-7-7-7-7-7-9-9-9-9-4-4-4-4-7-7-7-7-7-7-7-7-|
A|-9-9-9-9-4-4-4-4-7-7-7-7-7-7-7-7-9-9-9-9-4-4-4-4-7-7-7-7-7-7-7-7-|
D|-9-9-9-9-4-4-4-4-7-7-7-7-7-7-7-7-9-9-9-9-4-4-4-4-7-7-7-7-7-7-7-7-|

-----------------------------------------------------------------

Falcore
e|---------2---------------0---2---------------2-------------------|
B|-----3-------3-2-----2---------3-----3---3-----2-----2-3---2-----|
G|---2---2-----------2---2-----------2---2-----------2---------2-4-|
D|-----------------------------------------------------------------|
A|-----------------------------------------------------------------|
D|-----------------------------------------------------------------|
PM   .   .           .   .           .   .

Rainbow
D|-----------------------------------------------------------------|
A|-----------------------------------------------------------------|
D|-----------------------------------------------------------------|
D|-9-9-9-9-4-4-4-4-7-7-7-7-7-7-7-7-9-9-9-9-4-4-4-4-7-7-7-7-7-7-7-7-|
A|-9-9-9-9-4-4-4-4-7-7-7-7-7-7-7-7-9-9-9-9-4-4-4-4-7-7-7-7-7-7-7-7-|
D|-9-9-9-9-4-4-4-4-7-7-7-7-7-7-7-7-9-9-9-9-4-4-4-4-7-7-7-7-7-7-7-7-|


And that’s it, enjoy!
comments
We did not receive enough feedback on this tab! Please rate:
print report bad tab
1 2 3 4 5
I want to post or [tab]
guest
You may want to rate the tab now too:
select rating
Please do not post tabs as comments. Select "correction" instead!