Oops, an error
Loading. Please wait.

Shallow Grave Tab

595 views 6 this week
no commentswrite comment
1 2 3 4 5
excellent!
x 2
add to favorites
launch autoscroll
font size
0
reset
how to read this tab
guitar tuner
Tab Pro tools
  • play this tab
  • loop segment
  • change instrument
  • show fretboard
  • metronome
Autoscroll
slow
fast
+/-
esc
set tempo
stop
Contributor
Difficulty
Tuning
novice
D A D G B E
-------------------------------------------------------------------------------
                             SHALLOW GRAVE - The Birthday Massacre
-------------------------------------------------------------------------------
Tabbed by: Kiera

Tuning: Drop D



Intro/Chorus
e|---------------------------------------------------------------------------|
B|---------------------------------------------------------------------------|
G|---------------------------------------------------------------------------|
D|---------------------------------------------------------------------------|
A|-9-9-----9\--7-7-------2-2-------0-0---4-4---9-9-----9\--4-4-------7-7-----|
D|-9-9-----9\--7-7-------2-2-------0-0---4-4---9-9-----9\--4-4-------7-7-----|

-------------|
-------------|
-------------|
-------------|
-5-5---0-0---|
-5-5---0-0---|


Verse (not sure about first half) x2
e|---------------------------------------------|------------------------------|
B|-----10-10-10-10-12-12-10-10-10-10-10-10-9-9-|-10--10-9-----10--10--9-------|
G|---------------------------------------------|------------------------9-11--|
D|---------------------------------------------|------------------------------|
A|---------------------------------------------|------------------------------|
D|---------------------------------------------|------------------------------|


Intro/Chorus

Verse x2

Intro/Chorus


Bridge
e|---------------------------------------------------------------------------|
B|---------------------------------------------------------------------------|
G|---------------------------------------------------------------------------|
D|---------------------------------------------------------------------------|
A|-2-------9-------4-------0-------2-------9-------5-------7-----------------|
D|-2-------9-------4-------0-------2-------9-------5-------7-----------------|

e|---------------------------------------------------------------------------|
B|---------------------------------------------------------------------------|
G|---------------------------------------------------------------------------|
D|---------------------------------------------------------------------------|
A|-2-------9-------4-------0-------2-2-2-2-2-2-2-2-9-9-9-9-9-9-9-9-5-5-5-5-5-|
D|-2-------9-------4-------0-------2-2-2-2-2-2-2-2-9-9-9-9-9-9-9-9-5-5-5-5-5-|
PM                                 __________________________________________

------------------------------|
------------------------------|
------------------------------|
------------------------------|
---5-5-5-7-7-7-7-7-7----------|
---5-5-5-7-7-7-7-7-7----------|
PM _________________


   Guitar 1
e|---------------------------------------------------------------------------|
B|---------------------------------------------------------------------------|
G|---------------------------------------------------------------------------|
D|---------------------------------------------------------------------------|
A|-9-9-----9\--7-7-------2-2-------0-0---4-4---9-9-----9\--4-4-------7-7-----|
D|-9-9-----9\--7-7-------2-2-------0-0---4-4---9-9-----9\--4-4-------7-7-----|
 |
 | Guitar 2
e|----9------------7--------9---------------------9-----------7----------9---|
B|------10-----------10-------10---------10---------10----------10---------10|
G|---------11-----------9--------11-9-11----11---------11----------9---------|
D|---------------------------------------------------------------------------|
A|---------------------------------------------------------------------------|
D|---------------------------------------------------------------------------|


 Guitar 1
|---------------|
|---------------|
|---------------|
|---------------|
|---5-5---0-0---|
|---5-5---0-0---|
|
|Guitar 2
|---------------|
|---------10-12~|
|-11-9-11-------|
|---------------|
|---------------|
|---------------|


Intro/Chorus x2

END

thanks for looking :)
will put up more TBM

************************************

| /   slide up
| \   slide down
| h   hammer-on
| p   pull-off
| ~   vibrato
| +   harmonic
| x   Mute note
| b   Bend
| pb  Pre-bend
| br  Bend release
| pbr Pre-bend release
| brb Bend release bend

************************************
comments
We did not receive enough feedback on this tab! Please rate:
print report bad tab
1 2 3 4 5
I want to post or [tab]
guest
You may want to rate the tab now too:
select rating
Please do not post tabs as comments. Select "correction" instead!