Oops, an error
Loading. Please wait.

Sleep Walking Tab

1,475 views 1 this week
no commentswrite comment
1 2 3 4 5
please rate
add to favorites
launch autoscroll
font size
0
reset
how to read this tab
guitar tuner
Autoscroll
slow
fast
+/-
esc
set tempo
stop
Help us to improve Ultimate-Guitar.com Take our survey!
×
Author
Difficulty
Tuning
novice
D A D G B E
-------------------------------------------------------------------------------
                             SLEEP WALKING - The Birthday Massacre
-------------------------------------------------------------------------------
Tabbed by: Kiera
Email: evanescenceguitarist@yahoo.com

Tuning: Drop D


Intro/Outro
  Guitar 1
e|---------------------------------------------------------------------------|
B|---------------------------------------------------------------------------|
G|---8-8---8---8-8---8---8-8---8---8-8---8---8-8---8---8-8---8---8-8---8-----|
D|-------------------------------------------7-7---7---7-7---7---7-7---7-----|
A|---6-6---6---6-6---6---6-6---6---6-6---6---6-6---6---6-6---6---6-6---6-----|
D|---------------------------------------------------------------------------|
 |
 |Guitar 2 (semi-harmonic)
e|---------------------------------------------------------------------------|
B|---------------------------------------------------------------------------|
G|---------------------------------------------------------------------------|
D|---------------------------------------------------------------------------|
A|-5+------------------------------(5)br----5+-------------------------------|
D|---------------------------------------------------------------------------|

 Guitar 1
|------------|
|------------|
|--8-8---8---|
|--7-7---7---|
|--6-6---6---|
|------------|
|
|Guitar 2
|------------|
|------------|
|------------|
|------------|
|(5)br-------|
|------------|


Pre-Verse x2
e|---------------------------------------------------------------------------|
B|---------------------------------------------------------------------------|
G|---------------------------------------------------8-(not sure)------------|
D|---------------------------------------------------7-----------------------|
A|-0-1-4-0-1----0-1-4-0-1----0-1-4-0-1----0-1-4-0-1--------------------------|
D|-0-1-4-0-1----0-1-4-0-1----0-1-4-0-1----0-1-4-0-1--------------------------|


Verse
e|---------------------------------------------------------------------------|
B|---------------------------------------------------------------------------|
G|---------------------------------------------------------------------------|
D|---------------------------------------------------------------------------|
A|-1-1---1---1-1---1---4-4---4---6-6---6---1-1---1---1-1---1---9-9---9-------|
D|-1-1---1---1-1---1---4-4---4---6-6---6---1-1---1---1-1---1---9-9---9-------|

|------------|
|------------|
|------------|
|------------|
|-11-11---11-|
|-11-11---11-|


Chorus x2
  Guitar 1 
e|---------------------------------------------------------------------------|
B|---------------------------------------------------------------------------|
G|---------------------------------------------------------------------------|
D|---------------------------------------------------------------------------|
A|-6-6-6-6-6-6-6-6-6-6-6-6-6-6-6-6--9-9-9-9-9-9-9-9-9-9-9-9-9-9-9-9----------|
D|-6-6-6-6-6-6-6-6-6-6-6-6-6-6-6-6--9-9-9-9-9-9-9-9-9-9-9-9-9-9-9-9----------|
 |
 |Guitar 2 (very hard to hear, but there's something similar to this)
e|---------------------------------------------------------------------------|
B|------------14-14----------14-14------------14-14------------14-14---------|
G|---------------------------------------------------------------------------|
D|---------------------------------------------------------------------------|
A|---------------------------------------------------------------------------|
D|---------------------------------------------------------------------------|


  Guitar 1 
e|---------------------------------------------------------------------------|
B|---------------------------------------------------------------------------|
G|---------------------------------------------------------------------------|
D|---------------------------------------------------------------------------|
A|-1-1-1-1-1-1-1-1-1-1-1-1-1-1-1-1--4-4-4-4-4-4-4-4--11-11-11-11-11-11-11-11-|
D|-1-1-1-1-1-1-1-1-1-1-1-1-1-1-1-1--4-4-4-4-4-4-4-4--11-11-11-11-11-11-11-11-|
 |
 |Guitar 2 (very hard to hear, but there's something similar to this)
e|---------------------------------------------------------------------------|
B|------------14-14----------14-14---------------14-14-----------------14-14-|
G|---------------------------------------------------------------------------|
D|---------------------------------------------------------------------------|
A|---------------------------------------------------------------------------|
D|---------------------------------------------------------------------------|


Pre-Verse x2

Verse

Chorus x2

Pre-Verse x2


Bridge
  Guitar 1
e|---------------------------------------------------------------------------|
B|---------------------------------------------------------------------------|
G|---------------------------------------------------------------------------|
D|---------------------------------------------------------------------------|
A|-1-----------------------------4-------------6-----------------------------|
D|-1-----------------------------4-------------6-----------------------------|
 |
 |Guitar 2
e|---------------------------------------------------------------------------|
B|-11-----(11)\-----------------/9-9-9-9-9--9--8--8--------------------------|
G|--------------8-8-8-8-8-8-8-8----------------------6--6--------------------|
D|---------------------------------------------------------------------------|
A|---------------------------------------------------------------------------|
D|---------------------------------------------------------------------------|


  Guitar 1
e|---------------------------------------------------------------------------|
B|---------------------------------------------------------------------------|
G|---------------------------------------------------------------------------|
D|---------------------------------------------------------------------------|
A|-1----------------------------------------4-------------------11-----------|
D|-1----------------------------------------4-------------------11-----------|
 |
 |Guitar 2
e|---------------------------------------------------------------------------|
B|/11-11-11-11-11-11-11-11-----------------/14-14-14-14-14--14--13--13--9--9-|
G|-------------------------8-8-8-8-8-8-8-8-----------------------------------|
D|---------------------------------------------------------------------------|
A|---------------------------------------------------------------------------|
D|---------------------------------------------------------------------------|


  Guitar 1
e|---------------------------------------------------------------------------|
B|---------------------------------------------------------------------------|
G|---------------------------------------------------------------------------|
D|---------------------------------------------------------------------------|
A|-1-----------------------------------------4-------------6-----------------|
D|-1-----------------------------------------4-------------6-----------------|
 |
 |Guitar 2
e|---------------------------------------------------------------------------|
B|/11-11-11-11-11-11-11-11\-----------------/9-9-9-9-9--9--8--8--9--9--------|
G|--------------------------8-8-8-8-8-8-8-8----------------------------------|
D|---------------------------------------------------------------------------|
A|---------------------------------------------------------------------------|
D|---------------------------------------------------------------------------|


  Guitar 1
e|---------------------------------------------------------------------------|
B|---------------------------------------------------------------------------|
G|---------------------------------------------------------------------------|
D|---------------------------------------------------------------------------|
A|-1---------------------------------------4---------------------------------|
D|-1---------------------------------------4---------------------------------|
 |
 |Guitar 2
e|---------------------------------------------------------------------------|
B|/11-11-11-11-11-11-11-11---------------------------------------------------|
G|-------------------------8-8-8-8-8-8-8-8-6--------------8------------------|
D|---------------------------------------------------------------------------|
A|---------------------------------------------------------------------------|
D|---------------------------------------------------------------------------|


Chorus x2

Pre-Verse x2


Outro
e|-------------------------------------------|
B|-------------------------------------------|
G|---8-8---8---8-8---8---8-8---8---8-8---8---|
D|-----------------------7-7---7---7-7---7---|
A|---6-6---6---6-6---6---6-6---6---6-6---6---|
D|-------------------------------------------|


END

Thanks for looking :)
Plenty more TBM to come


************************************

| /   slide up
| \   slide down
| h   hammer-on
| p   pull-off
| ~   vibrato
| +   harmonic
| x   Mute note
| b   Bend
| pb  Pre-bend
| br  Bend release
| pbr Pre-bend release
| brb Bend release bend

************************************
Suggest correction
Give kudos to tab author, rate the tab!
1 2 3 4 5
comments
print report bad tab
guest
You may want to rate the tab now too:
select rating
Please do not post tabs as comments. Select "correction" instead!