Oops, an error
Loading. Please wait.

To Die For Bass Tab

version 1
version 1

Whole song

Interactive

957 views 1 this week
no commentswrite comment
1 2 3 4 5
please rate
add to favorites
launch autoscroll
font size
0
reset
guitar tuner
Autoscroll
slow
fast
+/-
esc
set tempo
stop
Help us to improve Ultimate-Guitar.com Take our survey!
×
Author
Difficulty
Tuning
novice
D A D G B E
-------------------------------------------------------------------------------
			     To Die For - The Birthday Massacre
-------------------------------------------------------------------------------

Tabbed By :  Necrotic
e-mail: joelschwallier@gmail.com

Tuning: Drop D

Intro
G|--------------------------------|
D|--------------------------------|
A|0-0-0-3-3-3-3-3-----------------|
D|----------------5-5-5-3-3-3-3-3-|x4

Verse
G|--------------------------------|
D|--------------------------------|
A|0-0-0-3-3-3-3-3-----------------|
D|----------------5-5-5-3-3-3-3-3-|x8

Pre-Chorus
G|--------|
D|--------|
A|--------|
D|3-------|

Chorus
G|-------------------------------------------------------------------|
D|-------------------------------------------------------------------|
A|-------------------------------------------------------------------|
D|7-7-7-5-5-5-5-5/10-10-10-3-3-3-3-3-7-7-7-5-5-5-5-5-2-2-2-3-3-3-3-3-|x4

Verse
G|------------------------------------------------------------------------|
D|------------------------------------------------------------------------|
A|0-0-0-0-0-0-0-0-3-3-3-3-3-3-3-3-----------------------------------------|
D|--------------------------------5-5-5-5-5-5-5-5/12-12-12-12-12-12-12-12-|x2

G|--------------------------------|
D|--------------------------------|
A|0-0-0-3-3-3-3-3-----------------|
D|----------------5-5-5-3-3-3-3-3-|x11

Pre-Chorus
G|--------------------------------|
D|--------------------------------|
A|0-0-0-3-3-3-3-3-----------------|
D|----------------5-----3---------|

Chorus
G|-------------------------------------------------------------------|
D|-------------------------------------------------------------------|
A|-------------------------------------------------------------------|
D|7-7-7-5-5-5-5-5/10-10-10-3-3-3-3-3-7-7-7-5-5-5-5-5-2-2-2-3-3-3-3-3-|x4



| /  slide up
| \  slide down
| h  hammer-on
| p  pull-off
| ~  vibrato
| +  harmonic
| x  Mute note
===============================================================================
Suggest correction
Give kudos to tab author, rate the tab!
1 2 3 4 5
comments
print report bad tab
guest
You may want to rate the tab now too:
select rating
Wanna post a correction for this tab? Suggest correction