Oops, an error
Loading. Please wait.

Under The Stairs Bass Tab

version 2
version 2

Whole song

93 views 1 this week
1 commentread comment
1 2 3 4 5
please rate
add to favorites
launch autoscroll
font size
0
reset
guitar tuner
Autoscroll
slow
fast
+/-
esc
set tempo
stop
Help us to improve Ultimate-Guitar.com Take our survey!
×
The Birthday Massacre  - Under The Stairs 
Album: Nothing and Nowhere 
Tabbed by: MelVinMaSsaCrE

Tuning: Drop D (D-A-D-G, low to high)

Intro Bass begins at 0:33
G|-------------------------------|
D|-------------------------------|
A|1--1-1----------3--3-3---------|
D|--------3--3-3----------0--0-0-|x2

G|----------------------------------------------------------------------------------|
D|----------------------------------------------------------------------------------|
A|1--1-1--1-1--1-1--1---------------------3--3-3--3-3--3-3--3-----------5--5--5-5-5-|
D|--------------------3--3-3--3-3--3-3--3---------------------0--0-0--0-------------|x2

Verse 1:17 "You know you're too young for your age…"
G|-------------------------------|
D|-------------------------------|
A|1--1-1----------3--3-3---------|
D|--------3--3-3----------0--0-0-|x2

Chorus 1:39 "Dead under stairs where no one cares…"
G|------------------------------------------------------------------------------|
D|------------------------------------------------------------------------------|
A|----------------3--3-3--3-3--3-3--3-1--1-1--1-0--0-0--0-----------------------|
D|1--1-1--3--3-3------------------------------------------5--5-5--5-5--5--5-5-5-|x2

Verse 2:01 "Nothing here has changed…"
G|-------------------------------|
D|-------------------------------|
A|1--1-1----------3--3-3---------|
D|--------3--3-3----------0--0-0-|x2

Chorus 2:22 "Dead under stairs where no one cares…"
G|------------------------------------------------------------------------------|
D|------------------------------------------------------------------------------|
A|----------------3--3-3--3-3--3-3--3-1--1-1--1-0--0-0--0-----------------------|
D|1--1-1--3--3-3------------------------------------------5--5-5--5-5--5--5-5-5-|x2

Bridge 2:44
G|--------------------------------|
D|--------------------------------|
A|1--1-1-----------------------0~-|
D|--------0--0-0--3--3-3--5--5----|x4

Outro 3:28
G|------------------------------------------------------------------------------|
D|------------------------------------------------------------------------------|
A|----------------3--3-3--3-3--3-3--3-1--1-1--1-0--0-0--0-----------------------|
D|1--1-1--3--3-3------------------------------------------5--5-5--5-5--5--5-5-5-|x4

Last Note 4:12
G|--------|
D|--------|
A|--------|
D|1~------|

I look forward to your ratings and comments. Have fun and enjoy!

Legend:
~ =let ring
Suggest correction
Give kudos to tab author, rate the tab!
1 2 3 4 5
comments
print report bad tab
1 comment total.
0 reply
rogerpirks 71 wrote on June 8 2013, 05:53 am

Good job. Your tab is more correct than mine.

guest
You may want to rate the tab now too:
select rating
Please do not post tabs as comments. Select "correction" instead!