Oops, an error
Loading. Please wait.

Unfamiliar Bass Tab

316 views 1 this week
no commentswrite comment
1 2 3 4 5
please rate
add to favorites
launch autoscroll
font size
0
reset
guitar tuner
Autoscroll
slow
fast
+/-
esc
set tempo
stop
Help us to improve Ultimate-Guitar.com Take our survey!
×
Author
-------------------------------------------------------------------------------
			     Unfamiliar - The Birthday Massacre
-------------------------------------------------------------------------------

Tabbed By : Necrotic
e-mail: joelschwallier@gmail.com

Tuning: Drop D

Intro
G|-------------------------------|
D|-------------------------------|
A|22----5-------------2-----0----|
D|--------------5------0---------|x2

Verse
G|----------------------------------------------------------------|
D|----------------------------------------------------------------|
A|2-2-2-2-2-2-5-5-5-5-5-5-5-5-5-5-------------2-5-5-5-5-5-0-0-0-0-|
D|--------------------------------5-5-5-5-5-5---------------------|

G|----------------------------------------------------------------|
D|----------------------------------------------------------------|
A|2-2-2-2-2-2-5-5-5-5-5-5-5-5-5-5-------------2-----------0-0-0-0-|
D|--------------------------------5-5-5-5-5-5---0-0-0-0-0---------|

Chorus
G|----------------------------------------------------------------|
D|----------------------------------------------------------------|
A|2-----------5-------------------------------2-5---------0-------|
D|--------------------------------5-------------------------------|

G|----------------------------------------------------------------|
D|----------------------------------------------------------------|
A|2-----------5-------------------------------2-----------0-------|
D|--------------------------------5-------------0-----------------|

Verse
G|----------------------------------------------------------------|
D|----------------------------------------------------------------|
A|2-2-2-2-2-2-5-5-5-5-5-5-5-5-5-5-------------2-5-5-5-5-5-0-0-0-0-|
D|--------------------------------5-5-5-5-5-5---------------------|

G|----------------------------------------------------------------|
D|----------------------------------------------------------------|
A|2-2-2-2-2-2-5-5-5-5-5-5-5-5-5-5-------------2-----------0-0-0-0-|
D|--------------------------------5-5-5-5-5-5---0-0-0-0-0---------|

Chorus
G|----------------------------------------------------------------|
D|----------------------------------------------------------------|
A|2-----------5-------------------------------2-5---------0-------|
D|--------------------------------5-------------------------------|

G|----------------------------------------------------------------|
D|----------------------------------------------------------------|
A|2-----------5-------------------------------2-----------0-------|
D|--------------------------------5-------------0-----------------|

Bridge
G|-------------------------------------------------------|
D|-------------------------------------------------------|
A|-------------------------------------------------------|
D|9-9---5-5---7-7------------9-9---5-5---7-7---2-2--0--2-|x2

G|--------------------------------------------|
D|--------------------------------------------|
A|0-0-----------------2-2---------------------|
D|----------5---------------------2-----------|

G|--------------------------------------------|
D|--------------------------------------------|
A|0-0-------5---------2-2---------------------|
D|--------------------------------2------0--2-|

Verse
G|----------------------------------------------------------------|
D|----------------------------------------------------------------|
A|2-2-2-2-2-2-5-5-5-5-5-5-5-5-5-5-------------2-5-5-5-5-5-0-0-0-0-|
D|--------------------------------5-5-5-5-5-5---------------------|

G|----------------------------------------------------------------|
D|----------------------------------------------------------------|
A|2-2-2-2-2-2-5-5-5-5-5-5-5-5-5-5-------------2-----------0-0-0-0-|
D|--------------------------------5-5-5-5-5-5---0-0-0-0-0---------|

Chorus
G|----------------------------------------------------------------|
D|----------------------------------------------------------------|
A|2-----------5-------------------------------2-5---------0-------|
D|--------------------------------5-------------------------------|

G|----------------------------------------------------------------|
D|----------------------------------------------------------------|
A|2-----------5-------------------------------2-----------0-------|
D|--------------------------------5-------------0-----------------|



| /  slide up
| \  slide down
| h  hammer-on
| p  pull-off
| ~  vibrato
| +  harmonic
| x  Mute note
===============================================================================
Suggest correction
Give kudos to tab author, rate the tab!
1 2 3 4 5
comments
print report bad tab
guest
You may want to rate the tab now too:
select rating
Wanna post a correction for this tab? Suggest correction