Oops, an error
Loading. Please wait.

Video Kid Bass Tab

version 1
version 1

Whole song

Interactive

828 views 1 this week
no commentswrite comment
1 2 3 4 5
x 4
add to favorites
launch autoscroll
font size
0
reset
guitar tuner
Autoscroll
slow
fast
+/-
esc
set tempo
stop
Help us to improve Ultimate-Guitar.com Take our survey!
×
Author
Difficulty
Tuning
novice
D A D G B E
-------------------------------------------------------------------------------
			     Video Kid - The Birthday Massacre
-------------------------------------------------------------------------------

Tabbed By : Necrotic 
e-mail: joelschwallier@gmail.com

Tuning: Drop D

Intro
G|----------------------------------------------------------------|
D|----------------------------------------------------------------|
A|----------------------------------------------------------------|
D|2-2-2-2---2-2-2-5-5-5-5-0-0-0-0-7-7-7-7---7-7-7-5-5-5-5-0-0-0-0-|x4

Verse
G|----------------------------------------------------------------|
D|----------------------------------------------------------------|
A|----------------------------------------------------------------|
D|2-2-2-2-2-2-2-2-5-5-5-5-0-0-0-0-7-7-7-7-7-7-7-7-5-5-5-5-0-0-0-0-|x4

Chorus
G|----------------------------------------------------------------|
D|----------------------------------------------------------------|
A|----------------------------------------------------------------|
D|2-2-------------5-5-----0-0-----7-7-------------5-5-----0-0-----|

G|----------------------------------------------------------------|
D|----------------------------------------------------------------|
A|----------------------------------------------------------------|
D|2-2-------------5-5-----0-0-----7-7-------7-7-7-5-5-5-5-0-0-0-0-|

Verse
G|----------------------------------------------------------------|
D|----------------------------------------------------------------|
A|----------------------------------------------------------------|
D|2-2-2-2-2-2-2-2-5-5-5-5-0-0-0-0-7-7-7-7-7-7-7-7-5-5-5-5-0-0-0-0-|x3

Pre-Chorus
G|----------------------------------------------------------------|
D|----------------------------------------------------------------|
A|----------------------------------------------------------------|
D|2-2-------------5-5-----0-0-----7-7-------------5-5-----0-0-----|

G|----------------------------------------------------------------|
D|----------------------------------------------------------------|
A|----------------------------------------------------------------|
D|2-2-------------5-5-----0-0-----7-7-------7-7-7-5-5-5-5-0-0-0-0-|

Chorus
G|----------------------------------------------------------------|
D|----------------------------------------------------------------|
A|----------------------------------------------------------------|
D|2-2-2-2---2-2-2-5-5-5-5-0-0-0-0-7-7-7-7---7-7-7-5-5-5-5-0-0-0-0-|x2

Bridge
G|----------------------------------------------------------------|
D|----------------------------------------------------------------|
A|----------------------------------------------------------------|
D|2-2----2-2-2---2-5-5---5-5-5---5-0-0---0-0-0---0-0-0---0-0-0---0|x3

G|-----------------------------------------------------------------|
D|-----------------------------------------------------------------|
A|-----------------------------------------------------------------|
D|2-2----2-2-2---2-5-5-5-5-5-5-5-5-7-7-7-7-7-7-7-7-7-7-7-7-7-7-7-7-|

Rest for 6 measures

Pre-chorus (this part may only be guitar, it's about 3 beats into the 7th
measure, it's optional to play)
G|--------------------------------|
D|--------------------------------|
A|------------5-------5-------5---|
D|----------5---5-3-5---5-2-5---3-|

Chorus/Outro
G|----------------------------------------------------------------|
D|----------------------------------------------------------------|
A|----------------------------------------------------------------|
D|2-2-2-2---2-2-2-5-5-5-5-0-0-0-0-7-7-7-7---7-7-7-5-5-5-5-0-0-0-0-|x4


| /  slide up
| \  slide down
| h  hammer-on
| p  pull-off
| ~  vibrato
| +  harmonic
| x  Mute note
===============================================================================
Suggest correction
comments
print report bad tab
guest
You may want to rate the tab now too:
select rating
Wanna post a correction for this tab? Suggest correction