Oops, an error
Loading. Please wait.

Violet Bass Tab

509 views 1 this week
no commentswrite comment
1 2 3 4 5
please rate
add to favorites
launch autoscroll
font size
0
reset
guitar tuner
Tab Pro tools
  • play this tab
  • loop segment
  • change instrument
  • show fretboard
  • metronome
×
Best way to learn
"Violet"
Autoscroll
slow
fast
+/-
esc
set tempo
stop
Contributor
Difficulty
Tuning
novice
D A D G B E
-------------------------------------------------------------------------------
			     Violet - The Birthday Massacre
-------------------------------------------------------------------------------

Tabbed By : Necrotic
e-mail: joelschwallier@gmail.com

Tuning: Drop D

Intro at 0:17
G|----------------------------------------------------------------|
D|----------------------------------------------------------------|
A|1-1---1-1-1---1-1-1---1-----------------------------------------|
D|------------------------3-3-5-5-5-5---5-5-5---5-5-5---5-3-3-5-5-|x4

Verse
G|----------------------------------------------------------------|
D|----------------------------------------------------------------|
A|1-1---1-1-1---1-1-1---1-----------------------------------------|
D|------------------------3---5---5-5---5-5-5---5-5-5---5-3-3-5-5-|x4

Pre-Chorus
G|-------------------------------------------------------------------------|
D|-------------------------------------------------------------------------|
A|1----------------------1-------1-----------------------------------------|
D|--------5------3----------------------5-------3---------------2---3------|

Chorus
G|------------------------------------------------------------|
D|------------------------------------------------------------|
A|----------------------------------------------------4-4-4-4-|
D|5-5-5-5-5---5-5-5-5---8-8-8-8-3-3-3-3-3---3-3-3-3-----------|

G|------------------------------------------------------------|
D|------------------------------------------------------------|
A|----------------------------------------------------2-2-2-2-|
D|5-5-5-5-5---5-5-5-5---7-7-7-7-3-3-3-3-3---3-3-3-3-----------|

G|----------------------------------------------------------------|
D|----------------------------------------------------------------|
A|----------------1-1-1-1-1-1-1-1-3-3-3-3-3-3-3-3-----------------|
D|5-5-5-5-5-5-5-5---------------------------------3-3-3-3-3-3-3-3-|

G|----------------------------------------------------------------|
D|----------------------------------------------------------------|
A|5-5-5-5-5-5-5-5-----------------1-1-1-1-1-1-1-1-----------------|
D|----------------5-5-5-5-5-5-5-5-----------------3-3-3-3-3-3-3-3-|

Pre-Verse
G|--------------------------------------------------------|
D|--------------------------------------------------------|
A|--------------------------------------------------------|
D|3-------------------------------------------------------|

Verse
G|----------------------------------------------------------------|
D|----------------------------------------------------------------|
A|1-1---1-1-1---1-1-1---1-----------------------------------------|
D|------------------------3---5---5-5---5-5-5---5-5-5---5-3-3-5-5-|x4

Pre-Chorus
G|-------------------------------------------------------------------------|
D|-------------------------------------------------------------------------|
A|1----------------------1-------1-----------------------------------------|
D|--------5------3----------------------5-------3---------------2---3------|

Chorus
G|------------------------------------------------------------|
D|------------------------------------------------------------|
A|----------------------------------------------------4-4-4-4-|
D|5-5-5-5-5---5-5-5-5---8-8-8-8-3-3-3-3-3---3-3-3-3-----------|

G|------------------------------------------------------------|
D|------------------------------------------------------------|
A|----------------------------------------------------2-2-2-2-|
D|5-5-5-5-5---5-5-5-5---7-7-7-7-3-3-3-3-3---3-3-3-3-----------|

G|----------------------------------------------------------------|
D|----------------------------------------------------------------|
A|----------------1-1-1-1-1-1-1-1-3-3-3-3-3-3-3-3-----------------|
D|5-5-5-5-5-5-5-5---------------------------------3-3-3-3-3-3-3-3-|

G|---------------------------------|
D|---------------------------------|
A|5-5-5-5-5-5-5-5------------------|
D|----------------5-5-5-5-5-5-5-5--|

Outro
G|-----------------------------------------------------------|
D|-----------------------------------------------------------|
A|1----------------------------------------------------------|
D|-----5-------3---5-------5---8-------5--------3----5-------|



| /  slide up
| \  slide down
| h  hammer-on
| p  pull-off
| ~  vibrato
| +  harmonic
| x  Mute note
===============================================================================
comments
We did not receive enough feedback on this tab! Please rate:
print report bad tab
1 2 3 4 5
I want to post or [tab]
guest
You may want to rate the tab now too:
select rating
Please do not post tabs as comments. Select "correction" instead!