Oops, an error
Loading. Please wait.

Walking With Strangers Bass Tab

version 1
version 1

Whole song

Interactive

866 views 1 this week
no commentswrite comment
1 2 3 4 5
please rate
add to favorites
launch autoscroll
font size
0
reset
guitar tuner
Tab Pro tools
  • play this tab
  • loop segment
  • change instrument
  • show fretboard
  • metronome
×
Best way to learn
"Walking With Strangers"
Autoscroll
slow
fast
+/-
esc
set tempo
stop
Contributor
Difficulty
Tuning
novice
D A D G B E
-------------------------------------------------------------------------------
			     Walking With Strangers - The Birthday Massacre
-------------------------------------------------------------------------------

Tabbed By : Necrotic
e-mail: joelschwallier@gmail.com

Tuning: Drop D

Intro
G|----------------------------------------------------------------|
D|----------------------------------------------------------------|
A|0-0-0-0-0-0-0-----------------2-3-3-3-3-3-3-3-0-----------------|
D|--------------5-3-3-3-3-3-3-3-------------------5-5-5-5-5-5-5-5-|x4

Verse
G|----------------------------------------------------------------|
D|----------------------------------------------------------------|
A|0-0---0-0-0-------------------2-3-3---3-3-3---0-----------------|
D|--------------5-3-3---3-3-3---------------------5-5---5-5-5---5-|x4

Chorus
G|----------------------------------------------------------------|
D|----------------------------------------------------------------|
A|0-0-0-0-0-0-0-----------------2-3-3-3-3-3-3-3-0-----------------|
D|--------------5-3-3-3-3-3-3-3-------------------5-5-5-5-5-5-5-5-|x4

Verse
G|----------------------------------------------------------------|
D|----------------------------------------------------------------|
A|0-0---0-0-0-------------------2-3-3---3-3-3---0-----------------|
D|--------------5-3-3---3-3-3---------------------5-5---5-5-5---5-|x4

Chorus
G|----------------------------------------------------------------|
D|----------------------------------------------------------------|
A|0-0-0-0-0-0-0-----------------2-3-3-3-3-3-3-3-0-----------------|
D|--------------5-3-3-3-3-3-3-3-------------------5-5-5-5-5-5-5-5-|x4

Bridge  (notes w/ dots under them are played staccato [short] but not necessarily
 Palm Muted in this part)
G|---------------------------------------------------------------|
D|---------------------------------------------------------------|
A|---------------------------------------------------------------|
D|2---2---2---2---2---2---2---2---5---5---5---5---0---0---0---0--|x4
  .   .   .   .   .   .   .   .   .   .   .   .   .   .   .   .
 
G|---------------------------------------------------------------|
D|---------------------------------------------------------------|
A|---------------------------------------------------------------|
D|2-----------2-------------------5-----------0------------------|x2

Pre-Chorus (quietly)
G|----------------------------------------------------------------|
D|----------------------------------------------------------------|
A|0-0-0-0-0-0-0-----------------2-3-3-3-3-3-3-3-0-----------------|
D|--------------5-3-3-3-3-3-3-3-------------------5-5-5-5-5-5-5-5-|x2

Chorus/Outro
G|----------------------------------------------------------------|
D|----------------------------------------------------------------|
A|0-0-0-0-0-0-0-----------------2-3-3-3-3-3-3-3-0-----------------|
D|--------------5-3-3-3-3-3-3-3-------------------5-5-5-5-5-5-5-5-|x8

Last Note
G|-----------------------------------|
D|-----------------------------------|
A|-----------------------------------|
D|7----------------------------------|


| /  slide up
| \  slide down
| h  hammer-on
| p  pull-off
| ~  vibrato
| +  harmonic
| x  Mute note
===============================================================================
comments
We did not receive enough feedback on this tab! Please rate:
print report bad tab
1 2 3 4 5
I want to post or [tab]
guest
You may want to rate the tab now too:
select rating
Please do not post tabs as comments. Select "correction" instead!