Oops, an error
Loading. Please wait.

Weekend Bass Tab

416 views 1 this week
no commentswrite comment
1 2 3 4 5
please rate
add to favorites
launch autoscroll
font size
0
reset
guitar tuner
Autoscroll
slow
fast
+/-
esc
set tempo
stop
Help us to improve Ultimate-Guitar.com Take our survey!
×
Contributor
Necrotic 985
-------------------------------------------------------------------------------
			     Weekend - The Birthday Massacre
-------------------------------------------------------------------------------

Tabbed By : Necrotic
e-mail: joelschwallier@gmail.com

Tuning: Drop D

Intro (6/8 time)
G|------------------------------------------------|
D|------------------------------------------------|
A|2-----------0-----2-----------0-----------------|
D|------5-----------------5-----------2-----5-----|

Main Riff
G|------------------------------------------------|
D|------------------------------------------------|
A|2-2-2-2-2-2-------------0-0-0-0-0-0-2-2-2-2-2-2-|
D|------------5-5-5-5-5-5-------------------------|

G|------------------------------------------------|
D|------------------------------------------------|
A|------------0-0-0-0-0-0-------------------------|
D|5-5-5-5-5-5-------------2-2-2-2-2-2-5-5-5-5-5-5-|x2

Verse
G|------------------------------------------------|
D|------------------------------------------------|
A|2-2-2-2-2-2-2-2-2-2-2-2-2-2-2-2-2-2-5-5-5-5-5-5-|
D|------------------------------------------------|

G|------------------------------------------------|
D|------------------------------------------------|
A|0-0-0-0-0-0-0-0-0-0-0-0-0-0-0-0-0-0-2-2-2-2-2-2-|
D|------------------------------------------------|

G|------------------------------------------------|
D|------------------------------------------------|
A|------------------------------------5-5-5-5-5-5-|
D|5-5-5-5-5-5-5-5-5-5-5-5-5-5-5-5-5-5-------------|

G|------------------------------------------------|
D|------------------------------------------------|
A|0-0-0-0-0-0-0-0-0-0-0-0-------------------------|
D|------------------------2-2-2-2-2-2-0-0-0-0-0-0-|x3
                                      ^ crescendo <
Chorus
G|------------------------------------------------|
D|------------------------------------------------|
A|2-2-2-2-2-2-------------0-0-0-0-0-0-2-2-2-2-2-2-|
D|------------5-5-5-5-5-5-------------------------|

G|------------------------------------------------|
D|------------------------------------------------|
A|------------0-0-0-0-0-0-------------------------|
D|5-5-5-5-5-5-------------2-2-2-2-2-2-5-5-5-5-5-5-|x2

Verse
G|------------------------------------------------|
D|------------------------------------------------|
A|2-2-2-2-2-2-2-2-2-2-2-2-2-2-2-2-2-2-5-5-5-5-5-5-|
D|------------------------------------------------|

G|------------------------------------------------|
D|------------------------------------------------|
A|0-0-0-0-0-0-0-0-0-0-0-0-0-0-0-0-0-0-2-2-2-2-2-2-|
D|------------------------------------------------|

G|------------------------------------------------|
D|------------------------------------------------|
A|------------------------5-5-5-5-5-5-5-5-5-5-5-5-|
D|5-5-5-5-5-5-5-5-5-5-5-5-------------------------|

G|------------------------------------------------|
D|------------------------------------------------|
A|0-0-0-0-0-0-0-0-0-0-0-0-------------------------|
D|------------------------2-2-2-2-2-2-0-0-0-0-0-0-|x3
                                      ^ crescendo <

Chorus
G|------------------------------------------------|
D|------------------------------------------------|
A|2-2-2-2-2-2-------------0-0-0-0-0-0-2-2-2-2-2-2-|
D|------------5-5-5-5-5-5-------------------------|

G|------------------------------------------------|
D|------------------------------------------------|
A|------------0-0-0-0-0-0-------------------------|
D|5-5-5-5-5-5-------------2-2-2-2-2-2-5-5-5-5-5-5-|x2

Bridge
G|------------------------------------------------|
D|------------------------------------------------|
A|5-5-5-5-5-5-0-0-0-0-0-0-7-7-7-7-7-7-------------|
D|------------------------------------5-5-5-5-5-5-|

G|------------------------------------------------|
D|------------------------------------------------|
A|5-5-5-5-5-5-0-0-0-0-0-0-------------------------|
D|------------------------2-2-2-2-2-2-5-5-5-5-5-5-|x2

Chorus/Outro
G|------------------------------------------------|
D|------------------------------------------------|
A|2-2-2-2-2-2-------------0-0-0-0-0-0-2-2-2-2-2-2-|
D|------------5-5-5-5-5-5-------------------------|

G|------------------------------------------------|
D|------------------------------------------------|
A|------------0-0-0-0-0-0-------------------------|
D|5-5-5-5-5-5-------------2-2-2-2-2-2-5-5-5-5-5-5-|x4


| /  slide up
| \  slide down
| h  hammer-on
| p  pull-off
| ~  vibrato
| +  harmonic
| x  Mute note
===============================================================================
Suggest correction new What's this?
You can suggest a correction to this tab. Community and Mods will review your correction and vote to approve or reject it.
comments
We did not receive enough feedback on this tab! Please rate:
print report bad tab
1 2 3 4 5
guest
You may want to rate the tab now too:
select rating
Please do not post tabs as comments. Select "correction" instead!