Oops, an error
Loading. Please wait.

6 Inch Gold Blade Bass Tab

1,039 views 3 this week
1 commentread comment
1 2 3 4 5
please rate
add to favorites
launch autoscroll
font size
0
reset
guitar tuner
Tab Pro tools
  • play this tab
  • loop segment
  • change instrument
  • show fretboard
  • metronome
×
Best way to learn
"6 Inch Gold Blade"
Autoscroll
slow
fast
+/-
esc
set tempo
stop
Artist- the birthday party
song- 6" gold blade
written by- nick cave


G-----------------------|
|
D-------5-3-----5-3-----|
|                         repeat ad nauseum
A-0-3-5----0-3-5---0-3-5|
|
E-----------------------|
comments
We did not receive enough feedback on this tab! Please rate:
print report bad tab
1 2 3 4 5
1 comment total.
0 reply
Porx wrote on July 22 2013, 04:03 pm

G-------------------------|
|
D-------3-5-3-------3-5-3-|
|
A---5-----------5---------|
|
E-3-----------3-----------|

G-------------------------|
|
D-------------------------|
|
A----------3--------------|
|
E-00-3-5-6--6-5-----------|

I want to post or [tab]
guest
You may want to rate the tab now too:
select rating
Please do not post tabs as comments. Select "correction" instead!