Oops, an error
Loading. Please wait.

Cry Bass Tab

version 1
version 1

Whole song

818 views 1 this week
1 commentread comment
1 2 3 4 5
please rate
add to favorites
launch autoscroll
font size
0
reset
guitar tuner
Tab Pro tools
  • play this tab
  • loop segment
  • change instrument
  • show fretboard
  • metronome
Autoscroll
slow
fast
+/-
esc
set tempo
stop
Band: The Birthday Party
Song: Cry
Tabbed by: Ben Harrison

Riff1
  1 & 2 & 3 & 4
G|----------------|
D|----------------|
A|----2-----------|
E|0-------3---2---|

Riff2
  1 & 2 & 3 & 4
G|----------------|
D|----------------|
A|----2-----------|
E|0-0-----3---2---|

Riff3
  1 & 2 & 3 & 4
G|----------------|
D|----------------|
A|----------------|
E|0---/-----------|
Just do variations on this - hit the minor third and fifth in various places after 
and it sounds alright.

Riff4
  1 & 2 & 3 & 4
G|----------------|
D|----------------|
A|------2---------|
E|0-0-----3---2---|

Song Order:
Riff1 x 2
Riff2 x 14
Riff3 x 4
Riff2 x 4
Riff3 x 4
Riff4 x 8
Riff2 x 12
Riff3 x 4
Riff4 x 4
Riff3 x 4
Riff4 x 8
Riff2 x 12
Riff3 x 4
Riff4 x 4
Riff3 x 4

Complaints/Comments?
brainerror138@gmail.com
comments
We did not receive enough feedback on this tab! Please rate:
print report bad tab
1 2 3 4 5
1 comment total.
0 reply
bennyshambles78 wrote on March 4 2012, 02:51 am


Riff1

G|-------------------|------------------|
D|-------------------|------------------|
A|--------3----------|-------3----------|
E|12\-1-------4---1--|-1-1-------4---1--|
[into slide riff] [--main bass riff--]

"and... CRY!"
G|-------------------|------------------|
D|-------------------|-------5----------|
A|-------3~---3-s/7--|---------3-p0-3-5-|
E|-1-1---------------|-3-3--------------|
[---segue riff---] [---chorus riff---]

The chorus riff is improvised runs in G,
so don't repeat it exactly.

G|-------------------|------------------|
D|-------------------|------------------|
A|----------3--------|---------3--------|
E|-1-1--------4---1--|-1-1-------4---1--|
[---------post chorus riff x2--------]

The feel on this riff is different although
it's the same notes as the main bass riff.

Rhythm of the main riff:
tee-tee ta ta ta

Rhythm of the post-chorus riff:
tee-tee rest tee-tee ta

Just play along and you'll figure it out.
It's all about repetition and feel.

I want to post or [tab]
guest
You may want to rate the tab now too:
select rating
Please do not post tabs as comments. Select "correction" instead!