Oops, an error
Loading. Please wait.

Cry Bass Tab

version 2
version 2

Whole song

207 views 1 this week
no commentswrite comment
1 2 3 4 5
please rate
add to favorites
launch autoscroll
font size
0
reset
guitar tuner
Tab Pro tools
  • play this tab
  • loop segment
  • change instrument
  • show fretboard
  • metronome
Autoscroll
slow
fast
+/-
esc
set tempo
stop
Contributor
Difficulty
novice
The first one was pretty close but I think the main riff goes:
g|--------------------------|
d|--------------------------|
a|-----2--------------------|
e|-0-0----3-1---------------|
though sometimes open e is only hit once

and the break bit goes:
g|--------------------------|
d|--------------------------|
a|------2-------------------|
e|-3-3----3-2---------------|
comments
We did not receive enough feedback on this tab! Please rate:
print report bad tab
1 2 3 4 5
I want to post or [tab]
guest
You may want to rate the tab now too:
select rating
Please do not post tabs as comments. Select "correction" instead!