Oops, an error
Loading. Please wait.

Junkyard Bass Tab

version 1
version 1

Whole song

2,299 views 4 this week
no commentswrite comment
1 2 3 4 5
please rate
add to favorites
launch autoscroll
font size
0
reset
guitar tuner
Tab Pro tools
  • play this tab
  • loop segment
  • change instrument
  • show fretboard
  • metronome
×
Best way to learn
"Junkyard"
Autoscroll
slow
fast
+/-
esc
set tempo
stop
Contributor
G-|------------------|
D-|----2-------------|  x 4
A-|--------2-23-2----|
E-|0--------------3--|

G-|----2-------------|
D-|--------2-23-2----|  x 2
A-|0--------------3--|
E-|------------------|

G-|------------------|
D-|----2-------------|  x 2
A-|--------2-23-2----|
E-|0--------------3--|

G-|----4-------------|
D-|--------4-45-4----|
A-|2--------------5--|
E-|------------------|

G-|----2-------------|
D-|--------2-23-2----|
A-|0--------------3--|
E-|------------------|

G-|------------------|
D-|----2-------------|
A-|--------2-23-2----|
E-|0--------------3--|

G-|------------------|
D-|------------------|
A-|------------------|
E-|0-----------------|

repeat this all over
comments
We did not receive enough feedback on this tab! Please rate:
print report bad tab
1 2 3 4 5
I want to post or [tab]
guest
You may want to rate the tab now too:
select rating
Please do not post tabs as comments. Select "correction" instead!