Oops, an error
Loading. Please wait.

King Ink Bass Tab

version 2
version 2

Whole song

303 views 1 this week
no commentswrite comment
1 2 3 4 5
please rate
add to favorites
launch autoscroll
font size
0
reset
guitar tuner
Tab Pro tools
  • play this tab
  • loop segment
  • change instrument
  • show fretboard
  • metronome
×
Best way to learn
"King Ink"
Autoscroll
slow
fast
+/-
esc
set tempo
stop
Contributor
Difficulty
intermediate
Artist/Band: The Birthday Party
Song: "King Ink"
Album: Prayers on Fire (1981)

Bass (Tracy Pew)
MAIN RIFF                   slow slide
G----------------------------------------|
D----------------------------------------|
A----------------------------------------|
E-0---------0----3----0----2/-------/12--|
cont.
G----------------------------------------|
D----------------------------------------|
A----------------------------------------|
E-----------0----3----0----2/-------/12--|
cont.
G----------------------------------------|
D----------------------------------------|
A----------------------------------------|
E-----------0----3----0----2/-------/12--|
cont.
G----------------------------------------|
D----------------------------------------|
A----------------------------------------|
E-0---------0----3----0----2/-------/12--|

Repeat MAIN RIFF throughout entire song

That's it. Feel free to leave questions, corrections, suggestions, or requests. Cheers!

-Bennyshambles78-
comments
We did not receive enough feedback on this tab! Please rate:
print report bad tab
1 2 3 4 5
I want to post or [tab]
guest
You may want to rate the tab now too:
select rating
Please do not post tabs as comments. Select "correction" instead!