Oops, an error
Loading. Please wait.

Release The Bats Bass Tab

version 2
version 2

Whole song

1,276 views 1 this week
no commentswrite comment
1 2 3 4 5
please rate
add to favorites
launch autoscroll
font size
0
reset
guitar tuner
Tab Pro tools
  • play this tab
  • loop segment
  • change instrument
  • show fretboard
  • metronome
×
Best way to learn
"Release The Bats"
Autoscroll
slow
fast
+/-
esc
set tempo
stop
Contributor
Band: The Birthday Party
Song: Release the Bats
Tabbed by: Ben Harrison


Riff1
  1   &   2   &   3   &   4        1   &   2   &   3   &   4
G|--------------------------------|--------------------------------|
D|----------------0--0----3-------|----------------0--0------------|
A|0--0----3--3--------------------|0--0----3--3------------2-------|
E|--------------------------------|--------------------------------|


Riff2
  1   &   2   &   3   &   4        1   &   2   &   3   &   4
G|--------------------------------|--------------------------------|
D|----------------0-------3-------|--------3-------0---------------|
A|0-------3-----------------------|0-----------------------3-------|
E|--------------------------------|--------------------------------|

Song Order:
Riff1 x 4
Riff2 x 4   
Riff1 x 6
No Bass for a few seconds!
Riff2 x 4  
Riff1 x 7
Riff2 x 4   
Riff1 x 5
Riff2 until end 

Always cut the second measure of Riff2 on the 4th time through except at the ending!

Special Thanks to Adam and Stu Puls for helping get the song fixed up correctly!

Complaints/Comments?
brainerror138@gmail.com
comments
We did not receive enough feedback on this tab! Please rate:
print report bad tab
1 2 3 4 5
I want to post or [tab]
guest
You may want to rate the tab now too:
select rating
Please do not post tabs as comments. Select "correction" instead!