Oops, an error
Loading. Please wait.

Hurtin Kind Bass Tab

10 views 1 this week
no commentswrite comment
1 2 3 4 5
3 more votes to show rating
add to favorites
launch autoscroll
font size
0
reset
guitar tuner
Autoscroll
slow
fast
+/-
esc
set tempo
stop
Help us to improve Ultimate-Guitar.com Take our survey!
×
Author
Difficulty
novice
Tabbed by: 6METAL6BASSIST6
E-mail: petergriffinav@gmail.com

Tuning: EADG

0:07

G|----------------------------------------------------------------|
D|8-----------8---6-----------6---8-----------8---6-----------6---| x2
A|--------8---------------6---------------8---------------6-------|
E|----------------------------------------------------------------|

0:15

G|------------------------------------------------8---6-----------|.
D|8-----------8---6-----------6---8-----------8-----------8---6---|.
A|--------8---------------6---------------8-----------------------|.
E|----------------------------------------------------------------|.
                                                                   . x2
G|----------------------------------------------------------------|.
D|8-----------8---6-----------6---8-----------8---6-----------6---|.
A|--------8---------------6---------------8---------------6-------|.
E|----------------------------------------------------------------|.

0:30

G|----------------------------------------------------------------|
D|--------8-------------------------------8-----------------------|
A|6-----------6---4-----------4---6-----------6---4-----------4---|
E|------------------------4-------------------------------4-------|

G|----------------------------------------------------------------|
D|--------8-------------------------------8-----------------------|
A|6-----------6---4-----------4---6-----------6---4---------------|
E|------------------------4-------------------------------4---6---|

G|----------------------------------------------------------------|
D|----------------------------------------------------------------|
A|4-------4-------4-------4-------4-------------------------------|
E|----------------------------------------------------------------|

G|----------------------------------------------------------------|
D|8-----------8---6-----------6---8-----------8---6-----------6---| x2
A|--------8---------------6---------------8---------------6-------|
E|----------------------------------------------------------------|

0:48

G|----------------------------------------------------------------|
D|8-----------8---6-----------6---8-----------8---6-----------6---| x2
A|--------8---------------6---------------8---------------6-------|
E|----------------------------------------------------------------|

G|------------------------------------------------8---6-----------|
D|8-----------8---6-----------6---8-----------8-----------8---6---|
A|--------8---------------6---------------8-----------------------|
E|----------------------------------------------------------------|

G|----------------------------------------------------------------|
D|8-----------8---6-----------6---8-----------8---6-----------6---|
A|--------8---------------6---------------8---------------6-------|
E|----------------------------------------------------------------|

1:04

G|----------------------------------------------------------------|
D|--------8-------------------------------8-----------------------|
A|6-----------6---4-----------4---6-----------6---4-----------4---|
E|------------------------4-------------------------------4-------|

G|----------------------------------------------------------------|
D|--------8-------------------------------8-----------------------|
A|6-----------6---4-----------4---6-----------6---4---------------|
E|------------------------4-------------------------------4---6---|

G|----------------------------------------------------------------|
D|----------------------------------------------------------------|
A|4-------4-------4-------4-------4-------------------------------|
E|----------------------------------------------------------------|

G|----------------------------------------------------------------|
D|8-----------8---6-----------6---8-----------8---6-----------6---| x3
A|--------8---------------6---------------8---------------6-------|
E|----------------------------------------------------------------|

1:26

G|----------------------------------------------------------------|
D|8-----------8---6-----------6---8-----------8---6-----------6---| x2
A|--------8---------------6---------------8---------------6-------|
E|----------------------------------------------------------------|

G|------------------------------------------------8---6-----------|
D|8-----------8---6-----------6---8-----------8-----------8---6---|
A|--------8---------------6---------------8-----------------------|
E|----------------------------------------------------------------|

G|----------------------------------------------------------------|
D|8-----------8---6-----------6---8-----------8---6-----------6---|
A|--------8---------------6---------------8---------------6-------|
E|----------------------------------------------------------------|

1:42

G|----------------------------------------------------------------|
D|--------8-------------------------------8-----------------------|
A|6-----------6---4-----------4---6-----------6---4-----------4---|
E|------------------------4-------------------------------4-------|

G|----------------------------------------------------------------|
D|--------8-------------------------------8-----------------------|
A|6-----------6---4-----------4---6-----------6---4---------------|
E|------------------------4-------------------------------4---6---|

G|----------------------------------------------------------------|
D|----------------------------------------------------------------|
A|4-------4-------4-------4-------4-------------------------------|
E|----------------------------------------------------------------|

G|----------------------------------------------------------------|
D|8-----------8---6-----------6---8-----------8---6-----------6---| x2
A|--------8---------------6---------------8---------------6-------|
E|----------------------------------------------------------------|

2:01 until fadeout.

G|----------------------------------------------------------------|
D|8-----------8---6-----------6---8-----------8---6-----------6---|
A|--------8---------------6---------------8---------------6-------|
E|----------------------------------------------------------------|

G|------------------------------------------------8---6-----------|
D|8-----------8---6-----------6---8-----------8-----------8---6---|
A|--------8---------------6---------------8-----------------------|
E|----------------------------------------------------------------|
Suggest correction
Give kudos to tab author, rate the tab!
1 2 3 4 5
comments
print report bad tab
guest
You may want to rate the tab now too:
select rating
Wanna post a correction for this tab? Suggest correction