Oops, an error
Loading. Please wait.

My Pretty And Her Pendulum Tab

400 views 1 this week
no commentswrite comment
1 2 3 4 5
please rate
add to favorites
launch autoscroll
font size
0
reset
how to read this tab
guitar tuner
Tab Pro tools
  • play this tab
  • loop segment
  • change instrument
  • show fretboard
  • metronome
×
Best way to learn
"My Pretty And Her Pendulum"
Autoscroll
slow
fast
+/-
esc
set tempo
stop
Contributor
Difficulty
i really like this song.
and i figured i'd try to tab it.
you can figure out the strumming.
enjoy.

Intro:
e|----------------------------|
B|----------------------------|
G|--9---8-9----8-9---8-9------|
D|----9------9-----9-----9----|
A|-------------------------7--|
E|----------------------------|

e|-----------------------|
B|--9-----9-----7--------|
G|----9-----9-----9---9--|
D|------9-----9-----9----|
A|-----------------------|
E|-----------------------|

Play that twice.
It goes through the verses, too.

Verse:
And I saw the light...
e|--0--0--0--0----0--0--0--0--|
B|--0--0--0--0----0--0--0--0--|
G|--6--x--6--x----x--9--x--9--|
D|--6--6--6--6----7--9--7--9--|  Play that four times.
A|--4--6--4--6----7--7--7--7--|
E|-----4-----4----5-----5-----|

Bridge:
It's killing me.. [the second time]
e|--0--|
B|--0--|
G|--x--|
D|--7--|
A|--7--|
E|--5--|

Second Verse:
And I know it's prison...
e|--0--0--|
B|--0--0--|
G|--6--x--|
D|--6--7--|  Play this four times.
A|--4--7--|
E|-----5--|

Second Bridge:
At once your move... [the second time]
e|-------------------|
B|-------------------|
G|----------9--------|
D|----7-9-7---9-7-9--| Not sure if it's right, but play this twice.
A|--0----------------|
E|-------------------|

Chorus:
Let's sail away to no where...
e|--0--0--0--0----0--0--0--0--|
B|--0--0--0--0----0--0--0--0--|
G|--9--x--6--4----x--x--6--4--|
D|--9--9--6--4----7--9--6--4--|
A|--7--9--4--2----7--9--4--2--|
E|-----7----------5--7--------|

Oh, don't believe...
e|--0--0--0--0--|
B|--0--0--0--0--|
G|--9--x--x--x--|
D|--9--9--7--9--|  Play this twice.
A|--7--9--7--9--|
E|-----7--5--7--|

Second Verse.
Second Bridge.
Chorus.

Third Bridge:
I know I've kept you waiting...
e|--0--0--0----0--0--0--|
B|--0--0--0----0--0--0--|
G|--6--x--x----x--x--x--|
D|--6--7--9----6--9--7--|
A|--4--7--9----6--9--7--|
E|-----5--7----4--7--5--|

e|--0--0--0--0--|
B|--0--0--0--0--|
G|--6--x--x--x--|
D|--6--7--9--6--|
A|--4--7--9--6--|
E|-----5--7--4--|

Play all that twice.
Then the chorus again.

Outro:
Let's keep these pages open...
e|--0--0--0--0--|
B|--0--0--0--0--|
G|--x--x--6--x--|
D|--7--9--6--6--|  Play that twice.
A|--7--9--4--6--|
E|--5--7-----4--|

And that's it.
I'm not sure if it's that good, 
but it's a start.
Any questions email me at heyskateboarder@aol.com
comments
We did not receive enough feedback on this tab! Please rate:
print report bad tab
1 2 3 4 5
I want to post or [tab]
guest
You may want to rate the tab now too:
select rating
Please do not post tabs as comments. Select "correction" instead!