Oops, an error
Loading. Please wait.

Gloria tab

841 views 6 this week
3 commentsread comments
1 2 3 4 5
1 last vote to show rating
add to favorites
×
Save as Personal and add changes to this tab that will be seen only by you. Learn more ›
×
You can save this tab as Personal to edit and correct it or add notes. All changes will be seen only by you. Learn more »
launch autoscroll
font size
0
reset
how to read this tab
guitar tuner
edit
Autoscroll
slow
fast
+/-
esc
set tempo
stop
Tabbed by: Diego

TUNING HALF-STEP DOWN --> D# G# C# F# A# D# <--


Intro:

D#|-3p0-------------0-0-0------|
A#|-----3-0---------1-1-1------|
F#|----------0------0-0-0------|
C#|-----------------2-2-2------|
G#|-----------------3-3-3------|
D#|--3--3-3--3-----------------|


Verse:

Talking to myself
Mam what's going on
When Mississipe life guards gives me a calling
D#|-3p0------------------------|
A#|-----3-0--------------------|
F#|----------0-----------------|
C#|----------------------------|
G#|----------------------------|
D#|--3--3-3--3-----------------|

I say Gloria
D#|--0-0-0---------------------|
A#|--1-1-1---------------------|
F#|--0-0-0---------------------|
C#|--2-2-2---------------------|
G#|--3-3-3---------------------|
D#|----------------------------|

Oh Gloria
D#|-3p0------------------------|
A#|-----3-0--------------------|
F#|----------0-----------------|
C#|----------------------------|
G#|----------------------------|
D#|--3--3-3--3-----------------|  <-- (Same for the rest of the verse)


Pont:

We need that letter but first come down
D#|--1-1-1---0-0-0------3-3-3--|
A#|--3-3-3---1-1-1------3-3-3--|
F#|--2-2-2---0-0-0------0-0-0--|
C#|--0-0-0---2-2-2------0-0-0--|
G#|----------3-3-3------2-2-2--|
D#|---------------------3-3-3--|


I didn't know what was coming my way
D#|--0-0------------------3-3-3-|
A#|--0-0------------------3-3-3-|
F#|--0-0------------------0-0-0-|
C#|--2-2---9-9-9----------0-0-0-|
G#|--2-2-2h7-7-7----------2-2-2-|
D#|--0-0---0-0-0----------3-3-3-|

Shalalalalalala  shalalalala
D#|--3-3-3----------------------|
A#|--3-3-3----------------------|
F#|--0-0-0----------------------|
C#|--0-0-0----------------------|
G#|--2-2-2----------------------|
D#|--3-3-3----------------------| <-- (Same thing for the whole pont)


Outro:
That letter may never ??
D#|--------0-0-0----0-0-0----|
A#|--------1-1-1----0-0-0----|
F#|--------2-2-2----0-0-0----|
C#|--------2-2-2----2-2-2----|
G#|--3-2-0-0-0-0----2-2-2----|
D#|-----------------0-0-0----|

Like a child that never tasted chocolate that sweet
Over there the river beds are drying
D#|--0-0-0----0-0-0---------|
A#|--1-1-1----0-0-0---------|
F#|--2-2-2----0-0-0---------|
C#|--2-2-2----2-2-2---------|
G#|--0-0-0----2-2-2---------|
D#|-----------0-0-0---------|

While here the whole town dissapeared
D#|--0-0---1-1--0---3p0-------|
A#|--1-1---3-3--1-------3-0---|
F#|--2-2---2-2--0-----------0-|
C#|--2-2---0-0--2-------------|
G#|--0-0--------3-------------|
D#|------------------3--3-3-3-|


Ending:

To the bottled letter where it all began
D#|--1-1-1---0-0-0------3-3-3--|
A#|--3-3-3---1-1-1------3-3-3--|
F#|--2-2-2---0-0-0------0-0-0--|
C#|--0-0-0---2-2-2------0-0-0--|
G#|----------3-3-3------2-2-2--|
D#|---------------------3-3-3--| (2x) 
Suggest correction
Creating personal tab
Creating personal tab
You can edit any tab online and save it as your Personal.

You can edit, replace or remove any tab part or add personal notes – all changes will be seen only by you.

Personal tabs can be accessed anytime from any device, even offline.
Learn more »
Give kudos to tab author, rate the tab!
1 2 3 4 5
comments
print report bad tab
3 comments total.
-1 reply
m2da 10 Feb 06, 2017 08:39 AM, edited at 01:39 pm

not such a good tab tbh---3p0--------------------3p0--------------------3-0----------------------------------------------3-3-3-3-3-3-3-3- this sounds a bit more consistent

+1 reply
m2da 10 Feb 06, 2017 08:40 AM

---3p0-------------
-------3p0---------
-----------3-0-----
-------------------
-------------------
---3-3-3-3-3-3-3-3-

0 reply
m2da 10 Feb 06, 2017 08:48 AM

----------------------
---1-1-----1-1-----3--
-------0-0-----0-0----
----------------------
---3---3---3---3---3--
----------------------

or this

guest
You may want to rate the tab now too:
select rating
Wanna post a correction for this tab? Suggest correction