Oops, an error
Loading. Please wait.

Set Your Head On Fire intro tab

version 1
version 1

Intro

Whole song

3,763 views 1 this week
2 commentsread comments
1 2 3 4 5
x 3
add to favorites
×
Save as Personal and add changes to this tab that will be seen only by you. Learn more ›
×
You can save this tab as Personal to edit and correct it or add notes. All changes will be seen only by you. Learn more »
launch autoscroll
font size
0
reset
how to read this tab
guitar tuner
edit
Autoscroll
slow
fast
+/-
esc
set tempo
stop
Author
Difficulty
Intro:


E:-------------2-2----2-2----2-2--2-2----2-2----2-2--|
B:-------------2-5^2--2-4^2--2-2--2-5^2--2-4^2--2-2--|
G:----4--2-------------------------------------------|
D:--4-4--2-4-----------------------------------------|
A:--4-2--0-4-----------------------------------------|
E:--2------2-----------------------------------------|


E:-------------2-2----2-2----2-2--2-2----2-2--5-5-5--|
B:-------------2-5^2--2-4^2--2-2--2-2----2-2--2-2-2--|
G:----4--2-------------------------------------------|
D:--4-4--2-4-----------------------------------------|
A:--4-2--0-4-----------------------------------------|
E:--2------2-----------------------------------------|


the rest is quiet the same, pre-chorus= B5     chorus= A5 and F#5

play it rough and with a lot of overdrive

            
            
Suggest correction
Creating personal tab
Creating personal tab
You can edit any tab online and save it as your Personal.

You can edit, replace or remove any tab part or add personal notes – all changes will be seen only by you.

Personal tabs can be accessed anytime from any device, even offline.
Learn more »
Give kudos to tab author, rate the tab!
1 2 3 4 5
comments
print report bad tab
2 comments total.
0 reply
arnaud 193 Jul 30, 2008 12:46 PM

Hello. Thanks for posting this tab.

But in my ears, it sounds more like:

E:-------------2------2------2----2------2------2----|
B:---------------5^2----4^2---------5^2----4^2-------|
G:----4--2---------------------3------------------3--|
D:--4-4--2-4-----------------------------------------|
A:--4-2--0-4-----------------------------------------|
E:--2------2-----------------------------------------|


E:-------------2------2------2----2-2----2-2--5-5-5--|
B:---------------5^2----4^2-------2-2----2-2--2-2-2--|
G:----4--2---------------------3---------------------|
D:--4-4--2-4-----------------------------------------|
A:--4-2--0-4-----------------------------------------|
E:--2------2-----------------------------------------|


Or maybe:

E:---------------------------------------------------|
B:-------------7------7------7----7------7------7----|
G:----4--2-------9^6----8^6---------9^6----8^6-------|
D:--4-4--2-4-------------------8------------------8--|
A:--4-2--0-4-----------------------------------------|
E:--2------2-----------------------------------------|


E:--------------------------------2-2----2-2--5-5-5--|
B:-------------7------7------7----2-2----2-2--2-2-2--|
G:----4--2-------9^6----8^6--------------------------|
D:--4-4--2-4-------------------8---------------------|
A:--4-2--0-4-----------------------------------------|
E:--2------2-----------------------------------------|


But I'm nore sure... I have to find and watch a video of it.

+1 reply
arnaud 193 Jul 31, 2008 03:48 AM

I've just seen a video (after posting the "correction") of the band playing the song at Werchter and... I've just rewatched the beginning, and now everything's clear: the guy uses a capo on the 4the fret, but then it has to be tuned one step down (I'm wondering why... he's maybe used to tuning his guitar one step down):

e---0-----0------0-----
B-----3h0---2h0--------
G-------------------1--
D----------------------
A----------------------
E----------------------

But this may be only for the live version.

guest
You may want to rate the tab now too:
select rating
Wanna post a correction for this tab? Suggest correction