Oops, an error
Loading. Please wait.

Set Your Head On Fire tab

version 1
version 1

Whole song

3,589 views 1 this week
2 commentsread comments
1 2 3 4 5
1 last vote to show rating
add to favorites
×
Save as Personal and add changes to this tab that will be seen only by you. Learn more ›
×
You can save this tab as Personal to edit and correct it or add notes. All changes will be seen only by you. Learn more »
launch autoscroll
font size
0
reset
how to read this tab
guitar tuner
edit
Autoscroll
slow
fast
+/-
esc
set tempo
stop
-------------------------------------------------------------------------------
              Set Your Head On Fire - The Black Box Revelation
-------------------------------------------------------------------------------
Tabbed by:Stefan De Graef
Email:stefanneman@hotmail.com

Tuning: Open E: E B E G# B E WITH CAPO ON 2ND FRET

        1. Play the 7th fret Low E and the A string open. Retune the A string to match the 
fret Low E.
        2. Play the 12th fret Low E and the D string open. Retune the D string to match the 
fret Low E.
        3. Play the 4th fret D string and the G string open. Retune the G string to match
4th fret D string.


!!With capo on second fret!! (so 0 equals second fret on the tab)

He plays it with his capo on his 4th fret though I don't understand why, maybe he's
using a different tuning but this sounds exactly the same.


Intro: 2x


e|--0--5--3--5-----0--0----0--0----0-----0--0----0--0----0-------------------|
B|--0--5--3--5-----0--3P0--0--2P0--0-----0--3P0--0--2P0--0-------------------|
G|--0--5--3--5-----0-------0-------0--0--0-------0-------0--0----------------|
D|--0--5--3--5---------------------------------------------------------------|
A|--0--5--3--5---------------------------------------------------------------|
E|--0--5--3--5---------------------------------------------------------------|

e|--0--5--3--5-----0--0----0--0----0------0--0-0-0-0-0-0-0-0-0-0-------------|
B|--0--5--3--5-----0--3P0--0--2P0--0------5--5-5-5-5-8-8-8-8-8-8-------------|
G|--0--5--3--5-----0-------0-------0--0--------------------------------------|
D|--0--5--3--5---------------------------------------------------------------|
A|--0--5--3--5---------------------------------------------------------------|
E|--0--5--3--5---------------------------------------------------------------|


Main riff += Verse (2x without lyrics + 2x with lyrics)


e|--0-0---0--0--0--0---0---0--0--0--0---------0------------------------------|
B|--0-0---3--0--2--0---0---3--0--2--0---------0------------------------------|
G|--0-0---0--0--0--0---0---0--0--0--0---------0------------------------------|
D|--0-0---0--0--0--0---0---0--0--0--0---------0------------------------------|
A|--0-0---3--0--2--0---0---3--0--2--0---0--3--0------------------------------|
E|--0-0---0--0--0--0---0---0--0--0--0---0--3--0------------------------------|

e|--0-0---0--0--0--0---0--0-0-0-0-0-0-0-0-0-0--------------------------------|
B|--0-0---3--0--2--0---5--5-5-5-5-8-8-8-8-8-8--------------------------------|
G|--0-0---0--0--0--0---------------------------------------------------------|
D|--0-0---0--0--0--0---------------------------------------------------------|
A|--0-0---3--0--2--0---------------------------------------------------------|
E|--0-0---0--0--0--0---------------------------------------------------------|


Intersection: 2x Palm mute the 5's on E and B string


e|--3h5----------------------------------------------------------------------|
B|--3h5----------------------------------------------------------------------|
G|--3h5----------------------------------------------------------------------|
D|--3h5----------------------------------------------------------------------|
A|--3h5-5-5-5-5-5-5-5-5-5-5-5-5-5-5-5-5-5-5-5-5-5-5-5-5-5-5-5-5-5-5-5-5------|
E|--3h5-5-5-5-5-5-5-5-5-5-5-5-5-5-5-5-5-5-5-5-5-5-5-5-5-5-5-5-5-5-5-5-5------|


Main riff: 1x

Intersection: 2x

Main riff: 1x

Prechorus: 4x


e|---------------------------------------------------------------------------|
B|---------------------------------------------------------------------------|
G|---------------------------------------------------------------------------|
D|---------------------------------------------------------------------------|
A|--3b--3b---0--0-0-0-0-0-0--0-0-0-0-0-0--0-0-0-0-0--------------------------|
E|--3b--3b---0--0-0-0-0-0-0--0-0-0-0-0-0--0-0-0-0-0--------------------------|


Chorus: 4x


e|--5--5-5-5-5---3--3-3-3-3---0----0-0-0-0-0---------------------------------|
B|--5--5-5-5-5---3--3-3-3-3---0----0-3-0-2-0---------------------------------|
G|--5--5-5-5-5---3--3-3-3-3---0----0-0-0-0-0---------------------------------|
D|--5--5-5-5-5---3--3-3-3-3---0----0-0-0-0-0---------------------------------|
A|--5--5-5-5-5---3--3-3-3-3---0----0-3-0-2-0---------------------------------|
E|--5--5-5-5-5---3--3-3-3-3---0----0-0-0-0-0---------------------------------|


Verse: 2x

Intersection: 2x

Main riff: 1x

Intersection: 4x

Chorus: 4x

Intro: 2x


Solo: (with slide and keep repeating)


e|--s14-14-14-14-14-14-14-12-12-12-12-12-12-12-12-12-12-12-14-14-14-14-14-14---|
B|--s14-14-14-14-14-14-14-12-12-12-12-12-12-12-12-12-12-12-14-14-14-14-14-14---|
G|------------------------------------------------------------------------------|
D|------------------------------------------------------------------------------|
A|------------------------------------------------------------------------------|
E|------------------------------------------------------------------------------|

In the next part he takes his slide and goes as high as possible on his strings even
his highest fret and just messes around


Outtro: (again with slide keep repeating and speed up a few bpm everytime)


e|--s14-14-14-14-14-14-14-12-12-12-12-12-12-12-12-12-12-12-14-14-14-14-14-14---|
B|--s14-14-14-14-14-14-14-12-12-12-12-12-12-12-12-12-12-12-14-14-14-14-14-14---|
G|------------------------------------------------------------------------------|
D|------------------------------------------------------------------------------|
A|------------------------------------------------------------------------------|
E|------------------------------------------------------------------------------|


| /  slide up
| \  slide down
| h  hammer-on
| p  pull-off
| ~  vibrato
| +  harmonic
| x  Mute note
===============================================================================
Suggest correction
Creating personal tab
Creating personal tab
You can edit any tab online and save it as your Personal.

You can edit, replace or remove any tab part or add personal notes – all changes will be seen only by you.

Personal tabs can be accessed anytime from any device, even offline.
Learn more »
Give kudos to tab author, rate the tab!
1 2 3 4 5
comments
print report bad tab
2 comments total.
0 reply
Lunasco_23 187 Mar 14, 2010 12:17 PM

Tis vrij goed ma volgens mij is 't toch nog ni helemaal juist maar tis al wel goe ^^ (BTW: Goei gitaristje heb 'k gezien)

0 reply
Mr.Toowb 31 May 01, 2011 02:00 AM

klopt ni helemaal, hij speelt live me ne capo op 4

guest
You may want to rate the tab now too:
select rating
Wanna post a correction for this tab? Suggest correction