Oops, an error
Loading. Please wait.

A Conspiracy tab

6,607 views 6 this week
1 commentread comment
1 2 3 4 5
1 last vote to show rating
add to favorites
×
Save as Personal and add changes to this tab that will be seen only by you. Learn more ›
×
You can save this tab as Personal to edit and correct it or add notes. All changes will be seen only by you. Learn more »
launch autoscroll
font size
0
reset
how to read this tab
guitar tuner
edit
Autoscroll
slow
fast
+/-
esc
set tempo
stop
ARTIST: THE BLACK CROWES
SONG: A CONSPIRACY
ALBUM: the 1994 Album AMORICA
TUNNING: STANDARD
TABBED BY: INDIE NATION 


CHORDS FOR THIS SONG:

E A D G b e

x 3 5 5 5 x C
3 5 5 4 3 3 G
x 5 7 7 7 x D
x x 0 2 3 2 D open
5 7 x x x x A5
x 3 5 5 x x C5
2 4 4 3 2 2 F#
4 7 x x x x E/Ab
3 5 x x x x G5
5 7 x 6 8 5 A7
x 2 4 4 x x B5
2 4 4 x x x F#5
5 7 7 6 5 5 A
x x 0 0 0 x G/D
0 2 0 1 0 0 E7
x 0 2 2 2 x A open
x 0 2 2 x x A5 open
2 5 x x x x D/F#
5 x 7 x x x AV(type 2)
7 x 9 x x x B
4 x 6 x x x G#
x x 0 2 3 x D5
x 0 0 x x x D5/A


Gtr I (E A D G B E) - 'Rich Robinson'
Gtr II (E A D G B E) - 'Marc Ford'
Gtr III (E A D G B E) - 'Rhythm'

For Fills see end of score

Intro
  Q=76
         D open
 4/4
  Gtr III
          E      S S E   E +H
          |      | | |   |  |
          /      / / /   /  /

  Gtr I
  a      +S  +S  S S S S E +Q..   S
|-----------------------------------|
|-7b7.5==(7)r(7)-5-------7-(7)----x-|
|-7b8====(8)r(7)-5---5---7-(7)------|
|------------------7---7------------|
|-----------------------------------|
|-----------------------------------|
|
| Gtr II
|         S   S  S S S S E +H
|-----------------------------------|
|---------3------3-3-3---3-(3)------|
|---------3s==2--2-0-2---2-(2)------|
|---------0------0-0-0---0-(0)------|
|-----------------------------------|
|----------------------0------------|


       C               G               C               G       D open
        E      S S E   E +H             E      S S E   E +Q.   S S
        |      | | |   |  |             |      | | |   |  |    | |
        /      / / /   /  /             /      / / /   /  /    / /

  a    +S  +S  S S S S E +H       a    +S  +S  S S S S E +Q.   S S
|-------------------------------|----------------------------------|
|-5b6==(6)r(5)---------0-(0)----|-5b6==(6)r(5)-----0---0-(0)---7-7-|
|-5b7==(7)r(5)-3---0-3-0-(0)----|-5b7==(7)r(5)-3---0-3-0-(0)---7-7-|
|----------------5-0------------|----------------5-------------7-7-|
|-------------------------------|----------------------------------|
|-------------------------------|----------------------------------|
|
|       S   S  S S S S E +H             S   S  S S S S E +Q.   S S
|-------------------------------|----------------------------------|
|----------------------0-(0)----|----------------------0-(0)-------|
|------------------5-5-0-(0)----|------------------5-5-0-(0)---7-7-|
|-------6s==5--5-3-5-5-0-(0)----|-------6s==5--5-3-5-5-0-(0)---7-7-|
|-------3------3-3-3-3----------|-------3------3-3-3-3---------5-5-|
|----------------------3-(3)----|----------------------3-(3)-------|


    A5                  C5
  S S E   E E E S S E   S S   W
  | | |   |   | | |     | |
  / / /   /   / / /     / /

      PM|                                       ~~~~~~~~
  S S S S E E e S S S S S S   S S S S S S S S e E   +S  S S S
|-------------5-----0-------|---------3-x---------------------|
|-7-------8-8-8-----x---5-5-|-5-3-----3-x-x-xS8-8---(8)---4-4-|
|-7-6-x-x-6-6---x-x---x-5-5-|-5-4-x-x-------------------x-4-4-|
|---7-7-7-7-7---------------|---------------------------------|
|---------------------------|---------------------------------|
|---------------------------|---------------------------------|
|
|                           Gtr II
| S S E   E E e S S E   S S   S S E   S S E   E S S  E    S S
|---------------------------|---------------------------------|
|---------------------------|---------------------------------|
|-7---------------------5-5-|-5---------------------------4-4-|
|-7-------7-----7-7-----5-5-|-5---5---5-5-----5-5-5-------4-4-|
|-5-7-7---7---7-7-7-----3-3-|-3-5-5---5-5-----5-5-5-------2-2-|
|---5-5---5---5-5-5-----3-3-|-3-3-3---3-3-----3-3-3-------2-2-|


  W
                ~~~~~~        ~
  S S S S S s S S +Q      S S E
|-----------3---2-(2)--------------|
|-4-2-x-x-x---5--------------------|
|-4-3-x-x-----------------5-2------|
|-----------------------------4----|
|----------------------------------|
|----------------------------------|
|
| S S E   S S E    E  S S E   S S
|----------------------------------|
|----------------------------------|
|-4-3------------------------------|
|-4-4-4---4-4------4--4-4-----4-4--|
|-2-4-4---4-4------4--4-4-----4-4--|
|-2-2-2---2-2------2--2-2-----2-2--|


   ~~~                              ~~~~~~~~~
  +Q.       a    +S   S S a    +S   E   +S   S E
|--------------------------------------------------||
|--------------------------------------------------||
|-----------4b6==(6)r---4-2b3==(3)r----------x-x---||
|-(4)----------------------------------------x-x---||
|-----------------------------------4---(4)\-------||
|--------------------------------------------------||
|
|  E  E S S       S   S E           S S  S   S S S
|--------------------------------------------------||
|--------------------------------------------------||
|-----3-3-3-----------x------------------------7-7-||
|-----4-4-4-------------4-----------4-4--------7-7-||
|-----4-4-4-------------4-----------4-4--------5-5-||
|-----2-2-2-------------2-----------2-2------5-5-5-||


 Verse 1
  S S E S S E E S S E S S   S S E S S S S E S S E S S
|-------------------------|-----5-5-5-----------------|
|-------------------------|-----5-5-5-----------------|
|-7-7---------------------|---x-6-6-6-----6-6-6---5-5-|
|-7-7-7-7-7---7-7-7---7-7-|-----7-7-7-----7-7-7---5-5-|
|-5-5-7-7-7---7-7-7---7-7-|-----7-7-7-x-x-7-7-7---3-3-|
|-----5-5-5---5-5-5---5-5-|-----5-5-5-x-x-5-5-5-------|
|
| S S E S S E E S S E S S   S S E S S S S E S S E S S
|-------------------------|-----5-5-5-----------------|
|-------------------------|-----5-5-5-----------------|
|-7-7---------------------|---x-6-6-6-----6-6-6---5-5-|
|-7-7-7-7-7---7-7-7---7-7-|-----7-7-7-----7-7-7---5-5-|
|-5-5-7-7-7---7-7-7---7-7-|-----7-7-7-x-x-7-7-7---3-3-|
|-----5-5-5---5-5-5---5-5-|-----5-5-5-x-x-5-5-5-------|


  Gtrs I, II
  S S S S S S S S E S S E S S
|---------3-3---x-3-3-3-3-3-3-|
|---------3-3-----3-3-3---3-3-|
|-5-------4-4-----4-4-4---4-4-|
|-5-3-----5-5-----5-5-5---5-5-|
|-3-3-5---5-5-----5-5-5---5-5-|
|-----3-3-3-3-----3-3-3---3-3-|


  E E S S S S E S S S S S S   S S E S S E E S S E S S
|-----3-3-----3-3-3---------|-------2-2-----2-2---2-2---|
|-----3-3-x-x-3-3-3---------|-------2-2-----2-2---2-2---|
|---4-4-4-----4-4-4-----4-4-|-4-----3-3-----3-3---3-3---|
|---5-5-5-----5-5-5-----4-4-|-4-2-4-4-4-----4-4---4-4---|
|---5-5-5-----5-5-5-----2-2-|-2-2-4-4-4---4-4-4---4-4---|
|---3-3-3-----3-3-3---2-2-2-|-2---2-2-2---2-2-2---2-2---|


  E E S S E E S S S S S S   S S E S S E E S S E S S   E E S S E E S S E S S
|---2-2-2---2-----x-x-----|-------------5-------5-5-|-------5---5-5-5------|
|---2-2-2---2-------------|-------------5-------5-5-|-------5---5-5-5------|
|---3-3-3---3---------7-7-|-7-----------6-------6-6-|-----6-6---6-6-6---5-5|
|---4-4-4---4---------7-7-|-7-5-7-7-7---7-7-7---7-7-|---7-7-7---7-7-7---5-5|
|---4-4-4---4-4-4-----5-5-|-5-5-7-7-7---7-7-7---7-7-|---7-7-7---7-7-7---3-3|
|---2-2-2---2-2-2---------|---5-5-5-5---5-5-5---5-5-|---5-5-5---5-5-5---3-3|


  S S S +S  S S E E S S E S S   S S E S S E E S S E S S
|---3-3-----3-3-----3-3---3-3-|-----3-3-3---3-3-3-------|
|---3-3-----3-3---3-3-3---3-3-|-x-x-3-3-3---3-3-3-------|
|-5---4-----4-4---4-4-4---4-4-|-x-x-4-4-4---4-4-4---4-4-|
|-5---5-----5-5---5-5-5---5-5-|-----5-5-5---5-5-5---4-4-|
|-3---5-(5)-5-5---5-5-5---5-5-|-----5-5-5---5-5-5---2-2-|
|-3---------3-3---3-3-3---3-3-|-----3-3-3---3-3-3---2-2-|


  S S E S S E E S S E S S   S S E E E E E E E
|-----2-2-2---2-2-2---2-2-|-2---2-2---2-2-2---||
|-----2-2-2---2-2-2---4-4-|-4---2-2---2-2-2---||
|-4---3-3-3---3-3-3---4-4-|-4---3-3---3-3-3-0-||
|-4-2-4-4-4---4-4-4---4-4-|-4-2-4-4-4-4-4-4---||
|-2-2-4-4-4---4-4-4-------|---2-4-4-4-4-4-4---||
|-2---2-2-2---2-2-2-------|-----2-2---2-2-2-3-||


 Pre-Chorus
  $
  $$
  E
  Gtr III
  H       H              H         H                   H       H
  |       |              |         |                   |       |
  o       /              /         /                   /       /

  Gtr I
  E E E E E   E E S S   +E  E E E  E  E       E  S S   E E E E E   S S E S S
|---------------------|------------------------------|---------------------|
|-----3---------3-----|-------3---------------3------|-----3-----------3---|
|---1---1-----1---1---|-----1---1-----1----------1---|---1---1-----1-1---1-|
|-2-------2---------0-|-(0)--------2---------------0-|-2-------2----------0|
|---------------------|------------------------------|---------------------|
|---------------------|------------------------------|---------------------|
|-play Fill 1 2nd time-|
| Gtr II
|                               ~~~~~~        ~~~
| H       E a Q   E     +E  Q   E +E  S S    +Q        H       E a Q     E
|---------------------|------------------------------|---------------------|
|---------------------|---------3-(3)-3-3pb5r(3)-----|---------------------|
|---------------------|-----1------------------------|---------------------|
|-----------0h2---0---|-(0)--------------------------|-----------0h2-----0-|
|---------------------|------------------------------|---------------------|
|-0-------------------|-(0)--------------------------|-0-------------------|
  W                     +W                             W


   H           H                   H       H
   |           |                   |       |
   /           /                   /       /

   E  E E S S  E  S S     E  S S   E E E E E   S S E S S
|--------------------------------|-----------------------|
|-------3-----------------3------|-----3-----------3-----|
|-----1---1-1-----1-1--------1---|---1---1-----1-1---1---|
|--0-----------0---------------0-|-2-------2-----------0-|
|--------------------------------|-----------------------|
|--------------------------------|-----------------------|
|
|         ~~~~~~~~        ~~~
| +E  Q   E   +E  S S    +Q        H       E a Q     E
|--------------------------------|-----------------------|
|---------3---(3)-3-3pb5r(3)-----|-----------------------|
|-----1--------------------------|-----------------------|
|-(0)----------------------------|-----------0h2-----0---|
|--------------------------------|-----------------------|
|-(0)----------------------------|-0---------------------|
  +W                               W


   W
   |
   /

   E  E E E  E  S     S   E  S S
|--------------------------------||
|--3--3-3----3------------3--2-0-||
|--1--1---1-----1-----1------2---||
|--0------------0----------------||
|--------------------------------||
|--------------------------------||
|-play Fill 2 2nd time-----------|
|     ~                   ~~~
| +E  Q   E +E  S    +S  +Q
|--------------------------------||
|---------3-(3)-3b5==(5)r(3)-----||
|-----1--------------------------||
|-(0)----------------------------||
|--------------------------------||
|-(0)----------------------------||
  +W


 Chorus
  A5                        E/Ab                            G
  H..                       E   +H..                      S S
  |                         |    |                        | |
  /                         /    /                        x /

                            ~~~~~~~~~
  H          a    +E  +E  E E   +H         a    +Q    +E  E
|-----------------------------|-------------------------------|
|-----------------------------|-------------------------------|
|------------4b6==(6)r(4)-2-1-|-(1)--------4b6==(6)r==(4)-2---|
|-----------------------------|-------------------------------|
|-----------------------------|-------------------------------|
|-----------------------------|-------------------------------|
|
| Q    E S S       E   E  E E   +Q    E. S       E  E  E  E
|-0----0-0-0-------0---0--0---|-------0--0--------------------|
|-0----0-0-2-------2---2--0---|-------0--0-------------0--3---|
|-2----2-2-2-------2---2--2-2-|-(2)---2--2-------2--2--2--0---|
|-2----------------2---2--2-2-|-(2)---2--2-------2--2--2--0---|
|-0----------------0---0------|-------------------------------|
|---------------------------4-|-(4)--------------4--4---------|


  G5                           D5
  H..                          E
  |                            |
  /                            /

  Q..     S a    +E  +E  E   a E
|---------------------------------|
|---------------------------------|
|-----------4b6==(6)r(4)-2-----2--|
|-5--------------------------2h4--|
|---------------------------------|
|---------------------------------|
|
| Q    E. S       E   E  S S   E
|-3----3--3-------3---3--3-----2--|
|-3----3--3-------3---3--3-----3--|
|-0----0--0-------0---0--0-0---2--|
|-0----0--0-------0---0--0-0---0--|
|------------------------------0--|
|-3----3--3-------3---3--3--------|


                                      A5                      E/Ab
  +W                                  Q  Q           E   E  E E
   |                                  |  |           |   |  | |
   /                                  /  /           /   /  / /

                                                              ~~~
  +E  S S Q       +E    E   S S E     H        a    +E  +E  E E
|-----------------------------------|---------------------------|
|-----3-3-3-------(3)-------3-3-----|---------------------------|
|-(2)-2-2-2-------(2)---2-------2---|----------4b6==(6)r(4)-2-1-|
|-(4)-------------------------------|---------------------------|
|-----------------------------------|---------------------------|
|-----------------------------------|---------------------------|
|
|-play Fill 3 2nd time--------------|-play Fill 5 2nd time------|
|-play Fill 4 3rd time--------------|
|
| +E  E   S S S S  S  S S S S S S S   Q  E S S       E   E  E E
|-(2)-----2-2-2-2--2--2-2-2-2-2-2-2-|-0--0-0-0-------0------0-0-|
|-(3)-----3-3-3-3--3--3-3-3-3-3-3-3-|-0--0-0-2-------2---0--0-0-|
|-(2)-2---2-2-2-2--2--2-2-2-2-2-2-2-|-2--2-2-2-------2---2--2-2-|
|-(0)-0---0-0-0-0--0--0-0-0-0-0-0-0-|-2--2-----------2---2--2-2-|
|-(0)-0-----------------------------|-0------------------0--0---|
|-----------------------------------|-------------------------4-|


                          To Dbl. Coda
  +H                Q.            S S
   |                |             | |

   /                /             x x

 ~~~~~
  +H          a    +E.   +S  +E   E
|--------------------------------------|
|--------------------------------------|
|-(1)---------4b6==(6)---(6)-(6)rs2----|
|--------------------------------------|
|--------------------------------------|
|--------------------------------------|
|
| +E  E E S S       E  E      E   S S
|-(0)---0-0------------0------0--------|
|-(0)---0-0------------0------0--------|
|-(2)---2-2-2-------2--2------2-----0--|
|-(2)-2-2-----------2--2------2---2-0--|
|--------------------------------------|
|-(4)-4-------------4--4----------4----|


                           To Coda
  G5                            D5
  H..                           E
  |                             |
  /                             /

  ~~~
  Q..      S a    +E  +E  E   a E
|---------------------------------|
|---------------------------------|
|------------4b6==(6)r(4)p2-------|
|-5---------------------------2h4-|
|---------------------------------|
|---------------------------------|
|
| Q    E S S       E   E  S S   E
|-3----3-----------3---3--3-----2-|
|-0----0-0-0-------0---0--0-----3-|
|-0----0-0-0-------0---0--0-----2-|
|-0----0---0-------0---0--0-0---0-|
|---------------------------0---0-|
|-3----3-----------3---3--3-------|


                                   Verse 2
                             D        A5    A7
                         Gtr I
  +H..                       S S    S S E   Q   E S S E   S S
   |                         | |    | | |   |   | | |     | |
   /                         / /    / / /   /   / / /     / /

                         Gtr II
  +E   S S Q     S S S S S S S S    S S S S E E E S S S S S S
|----------------------------2-2-||-------------5---------------|
|------3-3-3-----------3---x-3-3-||-7-------8-8-8---------8-8---|
|------2-2-2---------x-2---x-2-2-||-7-6-x-6-6-6-6-x-x-x-x-6-6---|
|-(4)--4-4-4-----2h4-x-4---x-----||-7-7-x-7-7-7-----------7-7---|
|--------------------------------||-----------------------------|
|--------------------------------||-----------------------------|
|
| +E   S S E S S S S S S S S S S    W
|-(2)--2-2-2---------------------||-----------------------------|
|-(3)--3-3-3-3-3-3-3-3-3-3-3-3-3-||-----------------------------|
|-(2)--2-2-2-0-2-2-0-2-0-0-2-2-0-||-----------------------------|
|-(0)--0-0-0-0-0-0-0-0-0-0-0-0-0-||-----------------------------|
|-(0)----------------------------||-----------------------------|
|--------------------------------||-----------------------------|


                           C5      G5
  E E S S E E       S S E  S S   S S E S S E E S S E   S S
    | | |   |       | |    | |   | | | | |   | | |     | |
    / / /   /       / /    / /   / / / / /   / / /     / /

  E E S S E S S     S S Q        Q     E   E E S S S S S S
|------------------------------|-----------------------3-3-|
|-8-x--------------------------|-------6---6-6-6-6-----3-3-|
|---x-x-x-7-7-5b5.5------------|-------4---4-4-4-4---x-4-4-|
|-------------------7-x-7\-----|-------5---5-5-5-5---------|
|------------------------------|---------------------------|
|------------------------------|---------------------------|


                              B5
  E   E    S  S E   E S S E   S S
      |    |  |     | | |     | |
      /    /  /     / / /     / /

  S S S S +S  S S S E S S S S S S
|-------3-(3)-5---3----------------|
|---x-5---------5---3-5---5---4-4--|
|-------------------4-5-3-5-3-4-4--|
|----------------------------------|
|----------------------------------|
|----------------------------------|


    F#5                                              D
  S S E   S S E E S S E S S    E  E S S  E E S S E   S S
  | | |   | |   | | |   | |       | | |    | | |     | |
  / / /   / /   / / /   / /       / / /    / / /     / /

                          ~~~~~~~~    ~~
  S S S S E   E E E   E S S   +E  E S E.   E S S S S S S
|-------------------------2-|-(2)-----2--------------2-2-|
|---------5---5-5-5---5-5---|--------------5-2-------3-3-|
|-4-------3---3-3-3---3-3---|--------------3---4-4-2-2-2-|
|-4-4-4---4---4-4-4---4-4---|--------------4-------------|
|---4-4---------------------|----------------------------|
|---------------------------|----------------------------|


    A5                        A
  S S E   E         E         E         S      S  E         S      S
  | | |   |                   |         |      |            |      |
  / / /   /                   /         /      /            /      /

  S S S S S     +S  S     +S  S     +S  S     +S  S     +S  S     +S
|-2-------------------------------------------------------------------|
|-3-2-x---8pb10r(8)-8pb10r(8)-8pb10r(8)-8pb10r(8)-8pb10r(8)-8pb10r(8)-|
|-2-2-x---------------------------------------------------------------|
|---2---0-------------------------------------------------------------|
|---------------------------------------------------------------------|
|---------------------------------------------------------------------|


                                                 C5
  E         E         E         E         E  S S E  S S
            |         |                   |  | |    | |
            /         /                   /  / /    / /

                                          ~~
  S     +S  S     +S  S     +S  S     +S  E.   S Q
|-------------------------------------------------------|
|-8pb10r(8)-8pb10r(8)-8pb10r(8)-8pb10r(8)---------------|
|----------------------------------------------5-7\-----|
|-----------------------------------------7-------------|
|-------------------------------------------------------|
|-------------------------------------------------------|


    G5                                                               B5
  S S E S S E   E   S S E S S   E   E   S S E         E      S S E   S S
  | | | | |     |   | |   | |       |   | |           |      | |     | |
  / / / / /     /   / /   / /       /   / /           /      / /     / /

                                        ~
  Q     E   S S S S E   E E     S S S S E   S S a    +S  +S  S S S S E
|---------------3---3---------|---------3---5---5b7==(7)r(5)-3---3-5-------|
|-----------3-5---5-----0-----|-----3-5-------0----------------0-----------|
|-----------------------------|---x----------------------------------------|
|-----------------------------|--------------------------------------------|
|-----------------------------|--------------------------------------------|
|-----------------------------|--------------------------------------------|


                                                      D.S. al Coda
    F#5             F#                B5      F#5
  S S E  S S E       E      S S E     S S   S S E   E     E E E E E
  | | |  | |         |      | |       | |   | | |   |     | | | | |
  / / /  / /         /      / /       / /   / / /   /     / / / / /

      ~~
  E   Q.       a    +S  +S  S S E     E     E   S S E     E E E E E
|-----2-----------------------------------|-------------------------||
|-----------------------------------------|-------------------------||
|--------------4b6==(6)r(4)-2---2b2.5-----|-----------------------2-||
|-----------------------------4-------4---|-4-----------------2-4---||
|-----------------------------------------|-----4-2-------4-4-------||
|-----------------------------------------|---------5b5.5-----------||


  &
  D5
   E   E   S  E.      E  S S E E
   |   |   |  |       |  | | | |
   /   /   /  /       /  / / / /

   E   E   E      E   E  E   E E
|-(2)----------------------------||
|-(3)-<5>-<5>----<5>-<5>-3---3-3-||
|-(2)-<5>-<5>----<5>-<5>-2---2-2-||
|-(0)-<5>-<5>----<5>-<5>-0---0-0-||
|-(0)--------------------0---0-0-||
|--------------------------------||


 Interlude
     E7                A open
  Gtr II
  Q  Q     E   E   E   E   +Q    Q     +H
     |     |   |   |   |    |    |      |
     /     /   /   /   /    /    /      /


  Gtr I
  Q  S S E S S S S S S E   +Q   +S  E.  S S S S +S  S E
|------------0-----0-----|--------------------------------|
|----0-0-----0-x-x-0-0---|----------0---------------------|
|----2-2-2---2-------0-2-|-(2)--(2)-----------------------|
|----------------------2-|-(2)--(2)-----7-7-7-7-(7)-8-9\--|
|----------------------0-|-(0)--(0)-----4-4-4-5-(5)-x-7\--|
|------------------------|--------------------------------|


     E7           A open                           E7         D   A open    
  Q  Q  +Q   +E   E   +W                           Q  Q     +Q       +E   E
     |   |    |   |    |                              |      |        |   |
     /   /    /   /    /                              /      /        o   /

  Q  Q   E E  S S E   +E  E S E S S S S S S S E    Q  S S E  S S S S  S S E
|----0---0----0-----|-----0-0-0------------------|-------------------------|
|----0-----0--0---2-|-(2)-0-0-0------------------|----0-0-x--x-0------x---2|
|----2--------2-0-2-|-(2)-2-2-2-x----------------|----2-2------2----------2|
|----0--------0-0-2-|-(2)---------6-6-6-7-7-7-9\-|----0-0------0-x------0-2|
|-------------2---0-|-(0)---------4-4-4-5-5-5-7\-|-------------2-2-x------0|
|-0-----------------|----------------------------|-0---------------0-------|


                                                             D.S.S. al Dbl. Coda
                                     E7  D     A open
  +W                              Q  Q   E E E E   E E E E E E E E
   |                                 |   | | | |   | | | | | | | |
   /                                 /   o / / /   / / / / / / / /

  +Q   +S  E. S S S S +S  S S S   Q  E E E E E E   E E E E E E E E
|----------0--------------------|----0-----------|---------0-0-0----||
|-(2)--(2)-0--------------------|----0---0-----2-|-2-2-2-2-2-2-2-2--||
|-(2)--(2)-2--------------------|----2---0---0-2-|-2-2-2-2-2-2-2-2--||
|-(2)--(2)----7-7-7-7-(7)-7-7-7-|------------x-2-|-2-2-2-2-2-2-2-2--||
|-(0)--(0)----4---4-5-(5)-5-5-5-|------2---2-2-0-|-0-0-0-0-0-0-0-0--||
|-------------------------------|-0----0---0-0---|------------------||


  &&
  G5                          D/F#
  Gtr III
  Q  Q           E   E  E     E   +W
  |  |           |   |  |     |    |
  /  /           /   /  /     /    /

  Gtr I
  ~
  H        a    +E  +E  E   a E   +E  S S Q       S S S S +S  S S S
|-------------------------------|-----------------------------------|
|-------------------------------|-----3-3-3-------------3-(3)-3-----|
|----------4b6==(6)r(4)-2-------|-----2-2-2-----------2-------------|
|-5-------------------------2h4-|-(4)-------------2h4-----------2-4-|
|-------------------------------|-----------------------------------|
|-------------------------------|-----------------------------------|
|
| Gtr II
| Q  E S S       E   E  S S   E   +E  S S S S S S S S S S  S  S S S
|-3--3-----------3---3--3-------|-----------------------------------|
|-0--0-0-0-------0---0--0-----3-|-(3)-3-3-3-3-3-3-3-3-3-3--3--3-3-3-|
|-0--0-0-0-------0---0--0-0---2-|-(2)-2-2-2-2-2-2-2-2-2-2--2--2-2-2-|
|-0--0---0-------0---0--0-0---0-|-(0)-0-0-0-0-0-0-0-0-0-0--0--0-0-0-|
|-------------------------------|-----------------------------------|
|-3--3-----------3---3--3-----2-|-(2)-2-2-2-2-2-2-2-2-2-2--2--2-2-2-|


  A5                         E/Ab
  Q  Q          E   E E       E
  |  |          |   | |       |
  /  /          /   / /       /

  ~
  H       a    +E   E E a    +E
|---------------------------------|
|-------------------2-3-5b7==(7)--|
|-2-------4b6==(6)r---------------|
|---------------------------------|
|---------------------------------|
|---------------------------------|
|
| Q  E. S       E   E E       E
|---------------------------------|
|---------------------------------|
|-2--2--2-------2---2-2-------2---|
|-2--2--2-------2---2-2-------2---|
|-0--0--0-------0---0-0-----------|
|-----------------------------4---|


                                 G5
  +Q     Q      E  E E     E      Q      Q      Q    E    E
   |     |      |  | |     |      |      |      |    |    |
   /     /      /  / /     /      /      /      /    x    /

         ~                               ~~~~~~~~~~
  +E   E Q     +E  E E   a E     +E  S S Q     +Q.        E
|--------------------5---5h7---|-(7)p5h7p5-----(5)--------------|
|-(7)r-5-5-----(5)-7-----------|-------------------------12b14==|
|------------------------------|--------------------------------|
|------------------------------|--------------------------------|
|------------------------------|--------------------------------|
|------------------------------|--------------------------------|
|
| +E   E E S S  E  E S S   S S    E  E   E S S  E  E S S  E
|--------0-----------0-0-------|--3--3---3-3-3--3--3-3-3--2-----|
|--------0-----------0-0-------|--3--3---3-3-3--3--3-3-3--3-----|
|-(2)--2-2-2-2--2--2-2-2---2-2-|--0--0---0-0-0--0--0-0-0--2-----|
|-(2)--2-2-2-2--2--2-2-2---2-2-|--0--0---0------0--0-0-0--0-----|
|------------------------------|--------------------------0-----|
|-(4)--4-4-4-4--4--4-4-4---4-4-|--3--3---3------3--3-3-3--------|


   +E    E     E              E  E     E               E   E
    |    |     |              |  |     |               |   |
    /    /     /              /  /     /               /   /

   +E    S  S  S  a      +E.     S  S  S  a      +S   +E   S  S
|-------10-11-12----------------10-11-12-------------------------|
|-(14)r----------12b14==(14)r------------12b14==(14)r(12)p10h12p=|
|----------------------------------------------------------------|
|----------------------------------------------------------------|
|----------------------------------------------------------------|
|----------------------------------------------------------------|
|
|  +E    S  S  E              E  S  S  E               E   S  S
|--(2)---------------------------2--2--2---------------2---2-----|
|--(3)---------------------------3--3--3---------------3---3-----|
|--(2)---2--2--2--------------2--2--2--2---------------2---2--x--|
|--(0)---0--0--0--------------0--0--0--0---------------0---0--x--|
|--(0)-----------------------------------------------------------|
|----------------------------------------------------------------|


  AV(type 2)              B      AV(type 2) G#
   E E  E          E   E  E      E          E
   | |  |          |   |  |      |          |
   / /  /          /   /  /      /          /

   ~~
   Q    S      +E.    +E.    +S  E  a      +E
|----------------------------------12b14==(14)-|
|-10---12b14==(14)---(14)r==(12)---------------|
|----------------------------------------------|
|----------------------------------------------|
|----------------------------------------------|
|----------------------------------------------|
|
|  E E  E          E   E  E      E          E
|-------0--------------------------------------|
|-------2--------------------------------------|
|--2-2--2----------2---2--2------2----------2--|
|--2-2--2----------2---2--2------2----------2--|
|--0-0--0----------0---0--0------0-------------|
|-------------------------------------------4--|


                                                      G5
  +E            E    E E   E   E             E        S  S
   |            |    | |   |   |             |        |  |
   /            /    / /   /   /             /        /  /

   ~~                 ~~~~~~~~~
   +E    a      +E    Q    +E   s  s  a      +S   +S   S  S
|-(14)r-12b14==(14)r-12---(12)-10-12------------------------|
|------------------------------------12b14==(14)r(12)-10----|
|--------------------------------------------------------12-|
|-----------------------------------------------------------|
|-----------------------------------------------------------|
|-----------------------------------------------------------|
|
|  E            E    E E   E   E             E        E
|------------------------------------------------------3----|
|------------------------------------------------------3----|
|---2------------2----2-2---2---2-------------2--------0----|
|---2------------2----2-2---2---2-------------2--------0----|
|-----------------------------------------------------------|
|---4------------4----4-4---4---4-------------4--------3----|


                                                   D5             D5/A
           E    E  E  E     E  E             E      E    +H.       +E  E
           |    |  |  |     |  |             |      |     |         |  |
           /    /  /  /     /  /             /      /     /         /  x

                                                          ~~~~
   a      +E    E  E  S  S  E  S  S  a      +E      E    +H.       +Q
|-----------------------------12-12-------------------|-------------------*|
|-12b14==(14)r-10-10----10-10-------12b14==(14)r---10-|-(10)------(10)----*|
|--------------------12-------------------------------|-------------------*|
|-----------------------------------------------------|-------------------*|
|-----------------------------------------------------|-------------------*|
|-----------------------------------------------------|-------------------*|
|
|         +E    E  E  E     E  E             S   s  E    +H.       +Q
|---------(3)---3--3--3-----3--3-------------3---3----|-------------------*|
|---------(3)---3--3--3-----3--3-------------3---3--3-|--(3)--------------*|
|---------(0)---0--0--0-----0--0-------------0---0--2-|--(2)--------------*|
|---------(0)---0--0--0-----0--0-------------0---0--0-|--(0)-------(0)----*|
|---------------------------------------------------0-|--(0)-------(0)----*|
|---------(3)---3--3--3-----3--3-------------3---3----|-------------------*|


FILLS

 Fill 1                Fill 2
             PM
  E E Q  +E. S E S S    E E E E S S E S S S S
|--------------------||-------------7-7-7-7-7-||
|-----3--(3)---3-----||-----3-------7-7-7-7-7-||
|---1------------1---||---1---1-----7-7-7-7-7-||
|-2----------------0-||-0-------6-6-6-6-6-6-6-||
|--------------------||---------------0-0-0-0-||
|------------0-------||-----------------------||


 Fill 3                        Fill 4                      Fill 5
   E  S S Q  S S S S S S S S     E  Q.   S S S S +S  S E    Q  Q  E E S S E
|----------------------------||--------------------------||----0-----------|
|-----3---3------------------||-----3----------3-(3)-3---||----2-----------|
|-(2)---2-2------------------||-(2)----------2---------2-||-2--2--2-2-2-2-2|
|-(4)--------0-0-0-0-0-0-0-0-||-(4)------2h4-------------||-2--2--2-2-2-2-2|
|----------------------------||--------------------------||-0--0--0-0-0-0--|
|----------------------------||--------------------------||---------------4|


            
            
Suggest correction
Creating personal tab
Creating personal tab
You can edit any tab online and save it as your Personal.

You can edit, replace or remove any tab part or add personal notes – all changes will be seen only by you.

Personal tabs can be accessed anytime from any device, even offline.
Learn more »
Give kudos to tab author, rate the tab!
1 2 3 4 5
comments
print report bad tab
1 comment total.
0 reply
Aerokizzombie 31 Sep 21, 2009 06:09 PM

good tab, a little hard to understand just cuz I hate people trying to put the whole, eigth, half notes into songs

but I ccan take it to word and pull that out easy, so 5/5

guest
You may want to rate the tab now too:
select rating
Wanna post a correction for this tab? Suggest correction