Oops, an error
Loading. Please wait.

Bring On Bring On Tab

2,094 views 3 this week
no commentswrite comment
1 2 3 4 5
please rate
add to favorites
launch autoscroll
font size
0
reset
how to read this tab
guitar tuner
Tab Pro tools
  • play this tab
  • loop segment
  • change instrument
  • show fretboard
  • metronome
Autoscroll
slow
fast
+/-
esc
set tempo
stop
Contributor
The Black Crowes
Song Title: Bring On, Bring On
TBC Original? Yes
Written By: C.R & R.R.
Recording Session: Three Snakes and One Charm
Record: Three Snakes and One Charm
Live Debut: 07/05/1996
Shows: 90 times played live

----------------------------
The above information was taken from www.crowesbase.com

Tuning: DGDGBD (Open G)

Intro/Solo rhythm
D--0----0--|
B--0----0--|
G--6----4--|
D--7----5--|
G--7----5--|
D----------|

These are the chords used during the intro as well as underneath the guitar solo.
to the song for the strumming pattern.

Verse
D--0----0-----0----0--|
B--8----8-----4----4--|
G--0----10----0----5--|
D--9----9-----5----5--|
G--0----0-----0----0--|
D---------------------|

Chorus                                 |1st  |2nd
D--5--7--9-9--5--7--9/10\9--5--7--9-9--|--5--|--2--|
B--0--0--0-0--0--0--0-------0--0--0-0--|--0--|--0--|
G--------------------------------------|-----|-----|
D--5--7--9-9--5--7--9/10\9--5--7--9-9--|--5--|--2--|
G--------------------------------------|-----|-----|
D--5--7--9-9--5--7--9/10\9--5--7--9-9--|--5--|--2--|

Repeat this figure once, and on the second time through play the second ending.

Bridge
D--------------|
B--------------|
G--------------|
D--3----5\--2--|
G--------------|
D--3----5\--2--|

D--------------------|
B--1----3----6----8--|
G--0----0----0----0--|
D--3----5----0----0--|
G--2----4----7----9--|
D--------------------|

This part comes directly out of a chorus, so hit the second repeat of the chorus I have tabbed out above and then continue on to this.  Repeat the four chords all the way through the "gift of sight/the baby's eye/darkness into light" part, and then return to the verse chords once for the ending of the song.
comments
We did not receive enough feedback on this tab! Please rate:
print report bad tab
1 2 3 4 5
I want to post or [tab]
guest
You may want to rate the tab now too:
select rating
Please do not post tabs as comments. Select "correction" instead!