Oops, an error
Loading. Please wait.

Hard To Handle Bass Tab

version 1
version 1

Whole song

Interactive

39,527 views 15 this week
5 commentsread comments
1 2 3 4 5
x 6
add to favorites
launch autoscroll
font size
0
reset
guitar tuner
backing track
0:00
0:00
×
Best way to learn
"Hard To Handle"
Autoscroll
slow
fast
+/-
esc
set tempo
stop
Bass Tablature
Hard To Handle
More or less as performed by the Black Crowes on "Shake Your Moneymaker"
Transcribed by Dan Amrich (DanAmrich@aol.com)


This bass tab is not 100% accurate; this is merely *one* way to play 
the song, using the Black Crowes' version as a jumping-off point. 
Being a blues rocker, there's plenty of room for interpretation anyway. 

Intro
G----------------------------------------------------
D------0-2-4----2-0-2-0----------0-2-4----2-0-2-0----
A--2-2--------------------2---2-2--------------------
E----------------------------------------------------


Hey baby here I am I'm a man on your scene...
G----------------------------------------------
D----------------------------------------------
A-2--2-------------0--2--2---------------------
E-----------0--2-------------------------------

            ^-- Repeat from here until end of verse


comin' back for more             Toys & things...
G----------------------------------------------
D----------------------------------------4-4-4-4
A----------------------------------------------
E--------------------0-0-0-0-0-1-2-2-2-2--------

   Hey little thing let me light your candle
G----------------------------------------------
D----------------------------------------------
A--2-------------------------------------------
E----------------------------------------------


...to handle now messin' round (?)
G----------------------------------------------
D----------------------------------------------
A-------------------------------0---2---(x4)---
E---------------------------------0------------

Back to verse
Suggest correction
comments
print report bad tab
5 comments total. Showing first comments.
0 reply
Robnfguitarplay 42 Jun 09, 2006 05:37 AM

End of verse

G------------------------------------------------
D-----------------------------------4-2----------
A---------------------------2------------2-------
E-2--2--2-2-2-2--2--2-2-2-2----------------------

0 reply
Robnfguitarplay 42 Jun 09, 2006 05:42 AM

G------------------------------------------------
D------------------------------4--2---4-2--------
A---------------------------2--------------2-----
E-2--2--2-2-2-2--2--2-2-2-2----------------------

opps my mistake

0 reply
Robnfguitarplay 42 Jun 09, 2006 05:48 AM

This incorrect
...to handle now messin' round (?)
G----------------------------------------------
D----------------------------------------------
A-------------------------------0---2---(x4)---
E---------------------------------0------------

correct
...to handle now messin' round (?)
G----------------------------------------------
D------4---2-----------------------------------
A---------------2------------------------(x4)--
E----------------------------------------------

guest
You may want to rate the tab now too:
select rating
Wanna post a correction for this tab? Suggest correction