Oops, an error
Loading. Please wait.

Hard To Handle Bass Tab

version 3
version 3

Whole song

Interactive

17,858 views 108 this week
1 commentread comment
1 2 3 4 5
excellent!
x 9
add to favorites
launch autoscroll
font size
0
reset
guitar tuner
Tab Pro tools
  • play this tab
  • loop segment
  • change instrument
  • show fretboard
  • metronome
Autoscroll
slow
fast
+/-
esc
set tempo
stop
Contributor
Difficulty
novice
This is a bass tab for a great song by The Black Crowes. Enjoy!!!

Song: Hard to Handle
Artist: The Black Crowes
Album: Shake Your Moneymaker
Year: 1990
Tuning: E, A, D, G.

Intro:
G|----------------------------------|
D|-----1-2-4----2-0-2-0-------------| play this twice
A|-2-2------------------2-----------|
E|----------------------------------|

Verse:
G|----------------------------------|
D|----------------------------------| repeat this 7 times
A|-2-----2--0-2-2-----0-------------|
E|----------------0-2---------------|

Verse Ender:
G|-------------------------|
D|---------------1-2-4-----| play this after you play the verse riff 7 times
A|-2-----2-0-2-2-----------|
E|-------------------------|

Pre Chorus
G|-----------------------------------|
D|-----------------------------------|
A|-----------1-1-4----------1-1-4-2--|
E|-2-2-2-2-2-------2-2-2-2-2---------|

Brief bass pause

play this before you go back in to the verse:
G|-------------------|
D|-------------------|
A|-5-5-5-5/7-7-7-7---|
E|-------------------|


G|-----------------------|
D|-----------------------|
A|-0-----2---------------|
E|----0------------------|

1)play the verse riff 7 more times and repeat like so and play the little riff on the
time again like so.

Play the Pre Chorus

play the main chorus riff 4 times then go back to the verse riff, repeat this 7 times
play the the verse ender. Then play the Pre Chorus riff, play the Main Chorus riff 4 times
repeat repeat the verse riff again another 7 times on the 8th time play this one instead 
the verse ender:

G|-------------------------|
D|-------------------------|
A|-2-2----0-2-2------2-----|
E|---------------0-2-------|

main chorus riff 4 more times

end.
comments
print report bad tab
1 comment total.
0 reply
jeremy.breckle wrote on August 24 2014, 05:15 pm

on the pre chorus shouldnt it be 1-2-4 1-2-4-2 instead of 1-1-4 1-1-4-2?

I want to post or [tab]
guest
You may want to rate the tab now too:
select rating
Please do not post tabs as comments. Select "correction" instead!