Oops, an error
Loading. Please wait.

Remedy tab

version 3
version 3

Whole song

Interactive

26,847 views 36 this week
3 commentsread comments
1 2 3 4 5
x 6
add to favorites
×
Save as Personal and add changes to this tab that will be seen only by you. Learn more ›
×
You can save this tab as Personal to edit and correct it or add notes. All changes will be seen only by you. Learn more »
launch autoscroll
font size
0
reset
how to read this tab
guitar tuner
backing track
0:00
0:00
edit
Autoscroll
slow
fast
+/-
esc
set tempo
stop
ARTIST: THE BLACK CROWES
SONG: REMEDY 
ALBUM: THE SOUTHERN HARMONY AND MUSICAL COMPANION 
TABBED BY: INDIE NATION 

Gtr I (D G D G B D) - 'Rich Robinson dist electric'
Gtr II (E A D G B E) - 'Marc Ford dist electric'

Intro
  Q=160
 4/4
  Gtr I
   Q        Q.    E  +E   +E  Q    +E  E E  E  E E  E E
|--------|-----------------------|--------------------5---|
|--------|-----------------------|--------------------5---|
|--------|-10-----9--(9)--(9)S5--|-(5)-5---------5--5-7b8r|
|--------|-10----10-(10)-(10)S5--|-(5)-5-5h=7----5--5-----|
|--------|-10-----9--(9)--(9)S5--|-(5)---5-(5)---5--5-----|
|--------|-----------------------|------------------------|
|
| Gtr II
|  E  E     Q.    E  +E   +E  Q    +H          E Q.
|--------|-----------------------|------------------------|
|--------|-10-----8--(8)--(8)S5--|-(5)---------6-5--------|
|--------|-10-----9--(9)--(9)S5--|-(5)---------7-5--------|
|--------|-10----10-(10)-(10)S5--|-(5)--------------------|
|--------|-----------------------|------------------------|
|-15S10\-|-----------------------|------------------------|
         |-Rhy Fig 1

  +E  E E E E Q   E    E  Q   E E E E E
|-(5)---------------|---------------------|
|-(5)-5-------------|---------------------|
|-(7)-5-5-----5---5-|-----5---5---5-5-5---|
|-----5-7-5-7-5---5-|--7------5---5-5-5---|
|-------5-5-5-5-----|--5------7s9---------|
|-------------------|---------------------|
|
| +H        E Q.      +E  E E E E E E E
|-------------------|---------------------|
|-(5)-------6-5-----|-(5)-5-5-5-6-5-x-x---|
|-(5)-------7-5-----|-(5)-5-5-5-7-5-x-x---|
|-------------------|---------------------|
|-------------------|---------------------|
|-------------------|---------------------|


  Q.   E +E   E  Q    +E  E E E E E  E E
|-------------------|--------------------|
|-------------------|-----3-----6-6--6-6-|
|-8----7-(7)--7--3--|-(3)-3-5s7-7-7--7-7-|
|-8----8-(8)--8--3--|-(3)-3--------------|
|-8----7-(7)-----3--|-(3)----------------|
|-------------------|--------------------|
|
| Q.   E +E  +E  Q    +H        E Q.
|-------------------|--------------------|
|-8----6-(6)-(6)S3--|-(3)-------4-3------|
|-8----7-(7)-(7)S3--|-(3)-------5-3------|
|-8----8-(8)-(8)S3--|-(3)----------------|
|-------------------|--------------------|
|-------------------|--------------------|


  a  E  E E E E E   E E    E  Q   E E E E E
|---------------3-----3-|-------------------||
|---------------3---3-3-|---------3---------||
|-7s=5--3-------5b7-3-3-|-----3---3---3-3---||
|----5----5-3-3-----3---|--5--3---3-3-3-3-3-||
|---------3-3-3---------|--3--3-----3---3-3-||
|-----------------------|-------------------||
|
|   +Q    Q   E Q.        +E  E E E E E E E
|-----------------------|-------------------||
|---(3)---3---4-3-------|-(3)-3-3-3-4-3-x-x-||
|---(3)---3---5-3-------|-(3)-3-3-3-5-3-x-x-||
|-----------------------|-------------------||
|-----------------------|-------------------||
|-----------------------|-------------------||
                              end Rhy Fig 1-|

Gtr I w/Rhy Fig 1
   Q.    E  +E   +E  Q    +E  E E   +E  E E  E E
|-----------------------|-------5---(5)----------|
|-----------------------|-------5---(5)-8--------|
|-10-----9--(9)--(9)S5--|-(5)-5-7b8r(7)-5--------|
|-10----10-(10)-(10)S5--|-(5)-5-----------7--5-7-|
|-10-----9--(9)--(9)S5--|-(5)----------------5-5-|
|-----------------------|------------------------|



   E   +E  E E Q    E   +E     E  E Q   Q   E E
|--5---(5)----------5---(5)-|-------------------|
|--5---(5)-8---8----5---(5)-|-------------------|
|--7b8r(7)-5---5----7b8r(7)-|--5----5---5---5-x-|
|------------7--------------|--5--7-5---5---5---|
|---------------------------|--5--------5-------|
|---------------------------|-------------------|



  Q.   E +E   E  Q     E  E E E E E    E E
|-------------------|------------------8-8-|
|-------------------|-------3----------6-6-|
|-8----7-(7)--7--3--|--3--3-3-3-3-8b10-----|
|-8----8-(8)--8--3--|--3--3-3-3-3----------|
|-8----7-(7)-----3--|----------------------|
|-------------------|----------------------|



   E    E E E    E E  E    E    E  E     +E  E E E E E
|-------8-8------------------|-------------------------||
|-------6-6------6-6-------6-|--6------------6---------||
|--8b10-----8b10------8b10---|-----8pb10r(8)---8-6-----||
|----------------------------|-----------------8-6-3---||
|----------------------------|-------------------------||
|----------------------------|-------------------------||



   Pre-Verse
    Gtr I
    Q  Q  E E E E   E E E E Q  Q    Q  Q  E E E E   Q    +E  E Q  E E
||----------------|---------------|---------------|-5----(5)-----------|
||o-------------6-|---------6-----|-------------6-|-5----(5)-----------|
||-----5--x-x-x-5-|---5-----5--5--|----5--x-x-x-5-|-7b8r=(7)p5-5-------|
||-----5--x-x-x-7-|---5---5-7--5--|----5--x-x-x-7-|------------5--5-7--|
||o-5--5----------|---5-----5--5--|-5--5----------|------------5--5-5--|
||----------------|---------------|---------------|--------------------|


  Q  Q  E E E E   +E  E E E Q  E E   Q  Q  E E E E   E E E E E E E E
|---------------|------------------|---------------|-----------------||
|-------------6-|-(6)---6----------|-------------6-|-------5-6-6-----||
|----5--x-x-x-5-|-(5)---5-5--------|----5--x-x-x-5-|---5---5-7-7-5---||
|----5--x-x-x-7-|-(7)-7-7-7-5--5-7-|----5--x-x-x-7-|---5---5-7-7-5---||
|-5--5----------|-----5-----5------|-5--5----------|---5---------5---||
|---------------|------------------|---------------|-----------------||


 Verse 1 & 2
  Q  Q  Q  E E   E E E E Q  Q    Q  Q  E E E E   E E E E Q  Q
|--------------|---------------|---------------|---------------|
|-3--3-----x-4-|---3-4---4--3--|-3-----------4-|---3-4---4--3--|
|-3--3-----x-3-|---3-3---3--3--|-3--3--x-x-x-3-|---3-3---3--3--|
|-3--3-----x-5-|---3-5---5--3--|-3--3--x-x-x-5-|---3-5---5--3--|
|-3--3-----x-3-|---3-----3-----|-3--3--------3-|---3-----3-----|
|--------------|---------------|---------------|---------------|


  Q  Q  E E E E   E E E E Q  Q    Q  Q  E E E E   E E E E Q  Q
|---------------|---------------|---------------|---------------|
|-------------6-|---------6-----|-------------6-|---------6--3--|
|----5--x-x-x-5-|---5-----5--5--|-5--5--x-x-x-5-|---5-----5--3--|
|----5--x-x-x-7-|---5---5-7--5--|-5--5--x-x-x-7-|---5---5-7--3--|
|-5--5----------|---5-----5--5--|-5-------------|-------5-5-----|
|---------------|---------------|---------------|---------------|


  Q  Q  Q  E E   E E E E Q  Q    Q  Q  Q  E E   E E E E Q  Q
|--------------|---------------|--------------|---------------|
|-3--3-----x-4-|---3-4---4--3--|-3--3-----x-4-|---3-4---4--3--|
|-3--3-----x-3-|---3-3---3--3--|-3--3-----x-3-|---3-3---3--3--|
|-3--3-----x-5-|---3-5---5--3--|-3--3-----x-5-|---3-5---5--3--|
|-3--3-----x-3-|---3-----3-----|-3--3-----x-3-|---3-----3-----|
|--------------|---------------|--------------|---------------|


  Q  Q  E E E E   E E E E Q  Q    Q  Q  E E E E   E E E E E E Q
|---------------|---------------|---------------|-----------------||
|-------------6-|---------6-----|-5--5--x-x-x-6-|---5---5-6-5-----||
|----5--x-x-x-5-|---5-----5--5--|-5--5--x-x-x-5-|---5---5-5-5-3\--||
|----5--x-x-x-7-|---5---5-7--5--|-5--5--x-x-x-7-|---5---5-7-5-5\--||
|-5--5----------|---5-----5--5--|-5--5----------|---5---5-5---5\--||
|---------------|---------------|---------------|-----------------||


 Pre-Chorus
w/Gtr I Rhy Fig 1 x2
   Q.    E  +E    E  Q    +Q   E  E  Q.     a    +E
|-----------------------|----------------------------|
|--------------------3--|-(3)------------------------|
|--8-----7--(7)---7--3--|-(3)---------------5b6==(6)r|
|--8-----8--(8)---8--3--|-(3)--3h=5--3---------------|
|--8-----7--(7)---------|------3-(3)-3---------------|
|-----------------------|----------------------------|
|-Rhy Fig 3


  +E  E E E Q.     a    +E    +E  E E E E Q.
|---------------------------|----------------------|
|---------------------------|-------------3--------|
|-(5)-3-----3------5b6==(6)r|=(5)-3-------3--------|
|-------5-3-3---------------|-------5-3-5-3--------|
|-------3-------------------|-------3---3----------|
|---------------------------|----------------------|



   Q.    E  +E   +E  Q    +E  E E E Q.     E
|-----------------------|--------------------|
|-----------------------|------------------6-|
|-10-----9--(9)--(9)S5--|-(5)-5-5---5------7-|
|-10----10-(10)-(10)S5--|-(5)-5-5h7-5--------|
|-10-----9--(9)--(9)S5--|-(5)-------5--------|
|-----------------------|--------------------|



   E  E E  E  E Q   a    +E    +E  E E E E Q   E
|----------------------------|-------------------|
|----------------------------|-------------------|
|--7p=5---------5---7b8==(8)r|=(7)-5-7-5---5-----|
|--5--5-7p=5--5-5------------|-------5---7-5---8-|
|-------5-(5)-5--------------|-----------5-5---8-|
|----------------------------|-------------------|



   Q.    E  +E    E  Q    +Q   E E Q       Q
|-----------------------|------8-8---------8--|
|-----------------------|------6-6---------6--|
|--8-----7--(7)---7--3--|-(3)------8b10-------|
|--8-----8--(8)---8--3--|-(3)-----------------|
|--8-----7--(7)------3--|-(3)-----------------|
|-----------------------|---------------------|



   E    E E E Q    E    E    E  E E E    Q   E     E
|-------8-8---8-----------|--8--8--------8-----------|
|-------6-6---6---------6-|--6--6-6------6-----------|
|--8b10-----8------8b10---|---------8b10-----8pb10-8-|
|-------------------------|--------------------------|
|-------------------------|--------------------------|
|-------------------------|--------------------------|



   Q    E  E  +E   +E  Q    +E  E a Q  E E  Q
|-------------------------|--------------------|
|-------------------------|--------------5--5--|
|-10---10--9--(9)--(9)S5--|-(5)-5---5--5-5--5--|
|-10---10-10-(10)-(10)S5--|-(5)-5-5h7--5----5--|
|-10-------9--(9)--(9)S5--|-(5)----------------|
|-------------------------|--------------------|



   E  E E   +E  E E  E E    E  E E E E E E E
|-------5---(5)----------|-------------------||
|-------5---(5)-8--------|-----6-6-6---------||
|--5--5-7b8r(7)-5--------|--5--7-7-7-7-5-5-3-||
|--5--5-----------7--5-7-|--5--5-5-5-5-5-5-5-||
|--5-----------------5-5-|-------------------||
|------------------------|-------------------||
                               end Rhy Fig 3-|


 Chorus
  Q.   E Q  Q    +E  E a  Q   E E Q    Q.   E E E Q    +E  E Q  E Q.
|-3----3-------|---------------------|---------------|-----8--------------|
|-3----3----6--|-(6)---6h=7---6-6----|---------------|-----8-8------------|
|-3----3----6--|-(6)-6-6-(6)--6-6-6--|------------8--|-(8)---8--x-6b6.5---|
|-3---------6--|-(6)-6-6h=8---6-6-6--|-6----6-x-x-8--|-(8)---8--x-6-------|
|-----------6--|-(6)--------------6--|-8----8-x-x-8--|-(8)----------------|
|--------------|---------------------|-6----6-x-x----|--------------------|
|-Rhy Fig 4                                                 end Rhy Fig 4-|

Rhy Fig 4 x2 (with slight variations)



  Q.   E Q  Q    +E  E a  Q   E E Q    H    E E Q    +E  E E E E E E E
|-3----3-------|---------------------|-------------|-------------------|
|-3----3----6--|-(6)---6h=7---6-6----|-------------|-------------8-----|
|-3----3----6--|-(6)-6-6-(6)--6-6-6--|------6---8--|-(8)-8-8-8-8-8-8-8-|
|-3---------6--|-(6)-6-6h=8---6-6-6--|-6----6---8--|-(8)-8-8-8-8-8-8-8-|
|-----------6--|-(6)--------------6--|-8--------8--|-(8)-8-8-8-8---8-8-|
|--------------|---------------------|-6-----------|-------------------|

 ___________________________________
 |1.
  Q.   E +E  E Q    +Q   Q  E Q.     +H     E Q  E   +Q   Q  Q  Q
|-----------------|----------------|---------------|-----------------||
|--------------3--|-(3)-----4-3----|-(3)----4-3----|----------------o||
|-8----7-(7)-7-3--|-(3)-----3-3----|-(3)----3-3--3-|-(3)--3--3--3----||
|-8----8-(8)-8-3--|-(3)-----5-3----|-(3)----5-3--3-|-(3)--3--3--3----||
|-8----7-(7)---3--|-(3)------------|-------------3-|-(3)--3--3--3---o||
|-----------------|----------------|---------------|-----------------||


 Guitar Solo
 ____________________
 |2.
 Gtr I plays Rhy Fig 3
  Gtr II
  E  +Q    E  Q    Q       +Q   E  E  E    E E       E
|------------------------|------6----------6-6------------|
|------------------6-----|-(6)-----6-------6-6------------|
|-8--(8)\----------8b10--|-(8)--------8b10-----------8b10-|
|-8--(8)\----------------|--------------------------------|
|------------------------|--------------------------------|
|------------------------|--------------------------------|



   E  E E    E E  S S E       E     E  a    +S  +S  E E E     E     Q
|--6--6--------6--------------6--|--------------------------------------||
|--6--6------6-6--9p6-6-------6--|--6--8b9==(9)r(8)p6---6-----6---------||
|-------8b10----------8----------|--6--8b9==(9)r(8)p6---6b6.5-6b6.5-----||
|--------------------------------|--------------------8-------------8\--||
|--------------------------------|--------------------------------------||
|--------------------------------|--------------------------------------||


                          ~~~~~~~~~~
   E    E E  E   E    E   Q     +Q.     S S  a     +Q    +E  S S
|---------8------------------|----------8--------------------8---|
|-------8----8--11----8--11--|-(11)-------8-11b13-(13)--(13)---8-|
|-10b12----------------------|-----------------------------------|
|----------------------------|-----------------------------------|
|----------------------------|-----------------------------------|
|----------------------------|-----------------------------------|



                ~~~~     ~~~~~
   a     +Q    +E  S  S  Q.            S  S
|------------------8-------------------8----|
|-11b13-(13)--(13)----8-11b13-------------8-|
|-------------------------------------------|
|-------------------------------------------|
|-------------------------------------------|
|-------------------------------------------|


    S  S  S S  a      +S   +T  T  E  E E      S S  E
|-----------------------------------------------------|
|-11p=8----8-----------------------10-----------------|
|-------10---10b12==(12)r(10)p8----10-8b8.5-----------|
|-------------------------------10----------10p8------|
|------------------------------------------------10---|
|-----------------------------------------------------|

  ~~
  Q   E E  E  E E    E    E  E    E E S    S S S S S S S
|----------------------|--6-------6-6-9p===6---6-9p6---6-|
|--------------------6-|--6--9b11------------9-------9---|
|-6---6----6--6-8b10---|---------------------------------|
|-------8--------------|---------------------------------|
|----------------------|---------------------------------|
|----------------------|---------------------------------|



  a      +S    +S  E E E    E E S    S E   E a      +E  +S  S E    E E E     E
|----------------------------------------|---------------------------------|
|-9b11==(11)r==(9)p6-6--------6----------|-------------------------6-6-6---|
|----------------------8b10-6-9-6h===8-6-|---8b10==(10)r(8)p6------6-6-6---|
|----------------------------------------|--------------------8-----------8|
|----------------------------------------|---------------------------------|
|----------------------------------------|---------------------------------|



                                  ~~~~~~~~~~
   a      +Q    +Q       E    E   Q     +Q       Q     E E  E  E
|------------------------------------|-------------------8-11s13-|
|-11b13==(13)r=(11)------------------|-----------------8-8-------|
|------------------------8----8------|----------10b12------------|
|--------------------------------10--|-(10)----------------------|
|------------------------------------|---------------------------|
|------------------------------------|---------------------------|



   Q       Q        a      +E   +E  E  E       +E   E  E  E  E  E  Q
|-13b15---13b15----13b15==(15)r(13)---13b14-|-(14)-15-14-13-11-12--------||
|-------------------------------------------|---------------------13\----||
|-----------------------------------x-------|----------------------------||
|-------------------------------------------|----------------------------||
|-------------------------------------------|----------------------------||
|-------------------------------------------|----------------------------||



 Breakdown
  Gtr I
  W          W          W          H    E E     E  E
|----------|----------|----------|---------------------|
|----------|----------|----------|------8--------------|
|----------|----------|----------|------8-6b6.5--------|
|----------|----------|----------|--------------8p(6)--|
|----------|----------|----------|---------------------|
|----------|----------|----------|---------------------|


                                     ~~
  Q.   E     H      H    E E E  E    Q.   E H      E  E  E  E  E  E  E  E
|-----------------|----------------|-------------|-------------------------|
|-----------------|------8---------|-------------|-------------------------|
|------6b6.5------|------8-6-------|-------------|-------------------------|
|-8---------------|----------8p(6)-|-8----6------|---[8]-6-(3)-------------|
|-----------------|----------------|-------------|-------------6-(3)-6-(3)-|
|-----------------|----------------|-------------|-------------------------|


  E E Q  H      E a    +E  Q  a    +E  E Q
|-------------|-----------------------------|
|-------------|-----------------------------|
|-------------|-----------------------------|
|-------------|-----------------------------|
|-6h8---------|---8b10r(8)----8b10r(8)------|
|-------------|-----------------------------|


  E  E  E E E E E E   E E E E E E E E
|-------------------|------------------|
|-------------------|------------------|
|-------------------|------------------|
|-------------------|-------------6h8--|
|---(8)-8-x-x-8-x-x-|-8-x-x-8-x-x------|
|-------------------|------------------|


                                           PM
  Q  Q  +E  E   +E  E   H    E E     E E   Q  E E H      H    E E     E E
|---------------------|------------------|-------------|-------------------|
|---------------------|------8-----------|-------------|------8------------|
|-----------6b7-(7)---|------8-6b6.5-----|-------------|------8-6b6.5------|
|----8--(8)-----------|--------------8-6-|-8----6------|--------------8-6--|
|---------------------|------------------|-------------|-------------------|
|---------------------|------------------|-------------|-------------------|


  ~~
  Q.   E     H      H    E E     Q    Q.   E H      E E Q  E     Q  E
|-----------------|-----------------|-------------|------------------------|
|-----------------|-----------------|-------------|------------------------|
|------6b6.5------|------8-6b6.5----|-------------|--------6b6.5----6b6.5--|
|-8---------------|--------------8--|-8----5------|---6--------------------|
|-----------------|-----------------|-------------|------------------------|
|-----------------|-----------------|-------------|------------------------|


  Q  e E E e Q     e  Q   e  Q  e E   E e Q   Q.   e
|---------------|-------------------|----------------|
|---------------|-------------------|----------------|
|----6-----6----|-[6]----[6]----6---|---6----[6]---6-|
|---------------|-------------------|----------------|
|---------------|-------------------|----------------|
|---------------|-------------------|----------------|


                              PM------------------|
  Q  e E E e Q    E E E E E E E E   E E E E E E E E
|---------------|-----------------|-----------------|
|---------------|-----------------|-----------------|
|----6-----6----|-6p3---6p3---3-x-|-x-3-x-3-x-3-x-3-|
|---------------|-----x-----6-----|-----------------|
|---------------|-----------------|-----------------|
|---------------|-----------------|-----------------|


              PM------------------|               PM---
  E E E E E E E E   E E E E E E E E   E E E E E E E E
|-----------------|-----------------|-----------------|
|-----------------|-----------------|-----------------|
|-6p3---6p3---3-x-|-x-3-x-3-----x-3-|-6p3---6p3---3-x-|
|-----x-----6-----|-----------------|-----x-----6-----|
|-----------------|---------3-3-----|-----------------|
|-----------------|-----------------|-----------------|


 ---------------|
  E E E E E E E E     E E E E E E E E
|-----------------||---------------------||
|-----------------||o-------------------o||
|---3-----3---3---||---------------------||
|-----------------||--8-8-8-8-8-8-8-8----||
|-3---3-3---3---3-||o-3-3-3-3-3-3-3-3---o||
|-----------------||---------------------||


Rhy Fig 4 x4


  Gtr II
                                         ~~~~
                           |-3-| |-3-|
  Q.   E +E  +E  Q    +Q   E E E E E E a Q
|-------------------|-----------------------|
|-8----6-(6)-(6)S3--|-(3)-------------------|
|-8----7-(7)-(7)S3--|-(3)--3-3-3-3-3-3-5s7--|
|-8----8-(8)-(8)S3--|-(3)-------------------|
|-------------------|-----------------------|
|-------------------|-----------------------|
|
| Gtr I
|                      TP
| Q.   E +E   E  Q    +W
|-------------------|-----------------------|
|-------------------|-----------------------|
|-8----7-(7)--7--3--|-(3)-------------------|
|-8----8-(8)--8--3--|-(3)-------------------|
|-8----7-(7)-----3--|-(3)-------------------|
|-------------------|-----------------------|


 ~~~~~~~~~~~~~
  +Q   Q   Q.    +E      E  E Q    +Q   +Q
|---------------------|----------------------|
|---------------------|----------------------|
|-(7)--8--10----(10)\-|--3--3----------------|
|---------------------|-------6b8--(8)--(8)--|
|---------------------|----------------------|
|---------------------|----------------------|
|
|  TP                    TP
| +W                    +W
|---------------------|----------------------|
|---------------------|----------------------|
|-(3)-----------------|-(3)------------------|
|-(3)-----------------|-(3)------------------|
|-(3)-----------------|-(3)------------------|
|---------------------|----------------------|


   TP
  +W           +W            W            Q.    E  +E   +E  Q
|------------|------------|------------|-----------------------|
|------------|------------|------------|-10-----8--(8)--(8)S5--|
|------------|------------|------------|-10-----9--(9)--(9)S5--|
|-(6)--------|-(6)--------|--x\--------|-10----10-(10)-(10)S5--|
|------------|------------|--x\--------|-----------------------|
|------------|------------|------------|-----------------------|
|
|  TP
| +W           +W           +W            Q.    E  +E   +E  Q
|------------|------------|------------|-----------------------|
|------------|------------|------------|-----------------------|
|-(3)--------|-(3)--------|-(3)--------|-10-----9--(9)--(9)S5--|
|-(3)--------|-(3)--------|-(3)--------|-10----10-(10)-(10)S5--|
|-(3)--------|-(3)--------|-(3)--------|-10-----9--(9)--(9)S5--|
|------------|------------|------------|-----------------------|


  +W             W             W
|------------|--------------|--------------*|
|-(5)--------|--------------|--------------*|
|-(5)--------|--------------|--------------*|
|-(5)--------|--------------|--------------*|
|------------|--------------|--------------*|
|------------|--------------|--------------*|
|
| +W            +W            +H      H
|------------|--------------|--------------*|
|------------|--------------|--------------*|
|-(5)--------|--------------|--------------*|
|-(5)--------|--------------|--------------*|
|-(5)--------|-*(5)---------|-(5)s===18----*|
|------------|--------------|--------------*|
               *feedback pitch D

            
            
Suggest correction
Creating personal tab
Creating personal tab
You can edit any tab online and save it as your Personal.

You can edit, replace or remove any tab part or add personal notes – all changes will be seen only by you.

Personal tabs can be accessed anytime from any device, even offline.
Learn more »
comments
print report bad tab
3 comments total.
0 reply
handlerb 311 Mar 04, 2007 08:57 AM

you ripped this off mike's guitar site....shame shame

0 reply
jlyndon666 20 May 30, 2012 01:52 PM

This is the only one that has the solo tab. Thank you very much!

0 reply
dakodah.sturgill 10 Mar 07, 2017 08:40 PM

Thank you!!

guest
You may want to rate the tab now too:
select rating
Wanna post a correction for this tab? Suggest correction