Oops, an error
Loading. Please wait.

Seeing Things Tab

version 1
version 1

Whole song

Interactive

33,388 views 51 this week
5 commentsread comments
1 2 3 4 5
excellent!
x 16
add to favorites
launch autoscroll
font size
0
reset
how to read this tab
guitar tuner
Tab Pro tools
  • play this tab
  • loop segment
  • change instrument
  • show fretboard
  • metronome
Autoscroll
slow
fast
+/-
esc
set tempo
stop
THE BLACK CROWES
SEEING THINGS

RIFFS USED:
FOR A:
e|-------------------------|
b|-------2-----------2-----|
g|-----2---2-------2---2---|
d|---2-------2---2-------2-|
a|-0-----------0-----------|
e|-------------------------|
FOR F#m7:
e|-------------------------|
b|-------2-----------2-----|
g|-----2---2-------2---2---|
d|---2-------2---2-------2-|
a|-------------------------|
e|-2-----------2-----------|
FOR A/G:
e|-------------------------|
b|-------2-----------2-----|
g|-----2---2-------2---2---|
d|---2-------2---2-------2-|
a|-------------------------|
e|-3-----------3-----------|
FOR D:
e|-------2-----------2-----|
b|-----3---3-------3---3---|
g|---2-------2---2-------2-|
d|-0-----------0-----------|
a|-------------------------|
e|-------------------------|
INTRO:
A---------------------| - A - F#m7 - A - F#m7
e|--------------------|
b|--------------------|
g|---------------2----|
d|-------2------------|
a|-2-/-4---4-\-2---0--|
e|--------------------|
VERSE (use specificed riff):
   I find it hard to shed a tear
 A
   Brought it on yourself my dear
F#m
   And wrong, yes I may be
 A
   Don't leave the light on for me
F#m
   Cause I ain't coming home
A/G
   It hurts me baby to be alone
 D
   Yes, it hurts me baby
 A
etc....
BRIDGE:
   You won't find me bent down on my knees
 B                                     E
   Ain't bendin over backwards baby
 B
   Not to please
            E
CHORUS:
Cause I'm seeing things for the first time
           G       D             A
(repeat 3 times)
In my life, in my life, yeah
       G           D             A

Goda
comments
print report bad tab
5 comments total. Showing first comments.
0 reply
redneckrocker2 wrote on April 16 2007, 04:32 pm

hey thanks it sounds pretty good!

0 reply
Clemo103 wrote on July 22 2008, 12:48 pm

seems accurate enough to me.

*****

0 reply
REAL TO REEL wrote on March 4 2009, 02:48 pm

pretty much all good except for the D try this

E-----------------------------------|
B------------7---------------7------|
G---------5----5----------5---------|
D------7---------7-----7------------|
A---5----------------6--------------|
E-----------------------------------|

I want to post or [tab]
guest
You may want to rate the tab now too:
select rating
Please do not post tabs as comments. Select "correction" instead!