Oops, an error
Loading. Please wait.

She Talks To Angels Chords

version 1
version 1

Acoustic

Whole song

Interactive

347,740 views 627 this week
23 commentsread comments
1 2 3 4 5
accurate
x 75
add to favorites
launch autoscroll
font size
0
reset
transpose
0
reset
display chords
guitar tuner
Tab Pro tools
  • play this tab
  • loop segment
  • change instrument
  • show fretboard
  • metronome
×
Best way to learn
"She Talks To Angels"
Autoscroll
slow
fast
+/-
esc
set tempo
stop
Contributor
Difficulty
intermediate
----------------------------------------------------------------------
                  She Talks To Angels - Black Crowes
----------------------------------------------------------------------

      h - hammer on
      p - pull off
      / - slide
-----------------------------------------------------------------------------
E chord      F#/Gbm   D        A
________     ______   ______   ______
EADGBe       EADGBe   EADGBe   EADGBe
022100       044200   000232   002220

Intro:

e|-----5-------0-------0---------0-------5-------0-------0---------0-|
B|-4/5---4p2-0-------0-----------0---4/5---4p2-0-------0-----------0-|
G|---------------1h2-----2-2p1---0-----------------1h2-----2-2p1---0-|
D|-----------------------------2-0-------------------------------2-0-|
A|-------------------------------------------------------------------|
E|-------------------------------------------------------------------|


e|-0-0--0-0-0--0----12---7----0-0--0-0-0--0----|
B|-0-0--0-0-0--0----12---7----0-0--0-0-0--0----|
G|-1-1--2-2-2--1----12---7----1-1--2-2-2--1----|
D|-2-2--4-4-4--2----12---7----2-2--4-4-4--2----|
A|-2-2--4-4-4--2----12---7----2-2--4-4-4--2----|
E|-0-0--0-0-0--0----12---7----0-0--0-0-0--0----|


e|---------------------------------0-0--0-0-0--0---|
B|-------------2p0---------0-------0-0--0-0-0--0---|
G|-----1-3p1---------3p1-----------1-1--2-2-2--1---|
D|-4s6-------2-----2-----2---4-2---2-2--4-4-4--2---|
A|---------------------------------2-2--4-4-4--2---|
E|---------------------------------0-0--0-0-0--0---|


e|-0---0---0---0---0---0---0---0----0-0--0-0-0--0---|
B|---5---4--------------------------0-0--0-0-0--0---|
G|-----------6---4---2---1----------1-1--2-2-2--1---|
D|---------------------------2------2-2--4-4-4--2---|
A|----------------------------------2-2--4-4-4--2---|
E|----------------------------------0-0--0-0-0--0---|


1st Verse:
                                   E    F#/Gbm   E
She never mentions the word addiction
                  E    F#/Gbm   E
In certain company
                                 E    F#/Gbm   E
Yes, she'll tell you shes an orphan
                        E    F#/Gbm   E
After you meet her family

Chorus: (No lyrics first time around)

D   A    E   F#/Gbm   E


2nd Verse:
                                       E    F#/Gbm   E
She paints her eyes as black as night now
                                E    F#/Gbm   E
She pulls those shades down tight
                                       E    F#/Gbm   E
Yeah she gives a smile when the pain comes
                                    E    F#/Gbm   E
The pain's gonna make everything alright

Chorus:
                        D      A                         E    
  E
She says she talks to angels, they call her out by her name
                       D     A                              E 
  F#/Gbm   E
Oh yea she talks to angels, says they call her out by her name

3rd Verse:
                                  E    F#/Gbm   E
She keeps a lock of hair in her pocket
                               E    F#/Gbm   E
She wears a cross around her neck
                               E    F#/Gbm   E
Yes the hair is from a little boy
                                         E    F#/Gbm   E
And the cross is from someone she has not met.....not yet

Chorus:
                        D      A                      E    
  E
She says she talks to angels, says they all know her name
                       D               A                     E   F#/Gbm   E
Oh yeah she talks to angels, says they call her out by her name

(Now skip the Natural harmonics,
 and go straight to the Bridge, which is something like this)

Bridge: (Sing while your strumming the A)
 A                  D
She don't know no lover
 A                   D
None that i've ever seen
 D                   A
To her that ain't nothin'
 E          A         E        E    
  E
But to me, it means, everything.

e|-----5-------0-------0---------0-------5-------0-------0---------0-|
B|-4/5---4p2-0-------0-----------0---4/5---4p2-0-------0-----------0-|
G|---------------1h2-----2-2p1---0-----------------1h2-----2-2p1---0-|
D|-----------------------------2-0-------------------------------2-0-|
A|-------------------------------------------------------------------|
E|-------------------------------------------------------------------|


e|-0-0--0-0-0--0----12---7----0-0--0-0-0--0----|
B|-0-0--0-0-0--0----12---7----0-0--0-0-0--0----|
G|-1-1--2-2-2--1----12---7----1-1--2-2-2--1----|
D|-2-2--4-4-4--2----12---7----2-2--4-4-4--2----|
A|-2-2--4-4-4--2----12---7----2-2--4-4-4--2----|
E|-0-0--0-0-0--0----12---7----0-0--0-0-0--0----|


e|---------------------------------0-0--0-0-0--0---|
B|-------------2p0---------0-------0-0--0-0-0--0---|
G|-----1-3p1---------3p1-----------1-1--2-2-2--1---|
D|-4s6-------2-----2-----2---4-2---2-2--4-4-4--2---|
A|---------------------------------2-2--4-4-4--2---|
E|---------------------------------0-0--0-0-0--0---|


e|-0---0---0---0---0---0---0---0----0-0--0-0-0--0---|
B|---5---4--------------------------0-0--0-0-0--0---|
G|-----------6---4---2---1----------1-1--2-2-2--1---|
D|---------------------------2------2-2--4-4-4--2---|
A|----------------------------------2-2--4-4-4--2---|
E|----------------------------------0-0--0-0-0--0---|

(Repeat 2nd Verse)
                                       E    F#/Gbm   E
She paints her eyes as black as night now
                                E    F#/Gbm   E
She pulls those shades down tight
                                       E    F#/Gbm   E
Yeah she gives a smile when the pain comes
                                    E    F#/Gbm   E
The pain's gonna make everything alright

Chorus:
                        D      A                         E    
  E
She says she talks to angels, they call her out by her name
                       D     A                              E 
  F#/Gbm   E
Oh yea she talks to angels, says they call her out by her name

Chorus:
                        D      A                         E    
  E
She says she talks to angels, they call her out by her name
                       D     A                       E    
  E
Oh yea she talks to angels, says they all know her name
comments
print report bad tab
23 comments total. Showing first comments.
+1 reply
king dan wrote on February 3 2008, 11:09 pm

the intro is way way off.. unless theres a tuning change you havent mentioned? the chorus is tolerable.. but not perfect

+4 reply
toeffifee wrote on April 21 2008, 01:32 pm

All the D Chords should be B's right??

0 reply
rezryder wrote on June 1 2008, 04:17 pm

Needs an Open E tuning
E-----------------
B-----------------
G#----------------
E-----------------
B-----------------
E-----------------
And intro should be
e|-----0-------0-------0---------0-------0-------0-------0---------0-|
B|-4/5---4p2-0-------0-----------0---4/5---4p2-0-------0-----------0-|
G|---------------1h0-----1h0-----0-----------------1h0-----1h0-----0-|
D|---------------------------0---0-----------------------------0---0-|
A|-------------------------------------------------------------------|
E|-------------------------------------------------------------------|
That is all Peace.

I want to post or [tab]
guest
You may want to rate the tab now too:
select rating
Please do not post tabs as comments. Select "correction" instead!