Oops, an error
Loading. Please wait.
We have Chord Pro version of She Talks To Angels.
It's the closest thing you can get to the original song and it has interactive parts. Check out the tab »
×
17,692 views 21 this week
no commentswrite comment
1 2 3 4 5
1 last vote to show rating
add to favorites
×
Save as Personal and add changes to this tab that will be seen only by you. Learn more ›
×
You can save this tab as Personal to edit and correct it or add notes. All changes will be seen only by you. Learn more »
launch autoscroll
font size
0
reset
how to read this tab
guitar tuner
backing track
0:00
0:00
edit
Autoscroll
slow
fast
+/-
esc
set tempo
stop
Author
Difficulty
intermediate
Song: She Talks to Angels
Artist: Black Crows

Hey my name is Trey and this is my first tab but it is a good one.  I was looking for a
tab for this myself and found some pretty good ones but they bugged me so I figured what
heck I'll send one.  So here it is. If for some reason you get bored with guitar, I 
never do, go ahead and head on over to youtube.com and check out 3rd half of the
quarter.

Tuning: Standard EADGBe

h - hammer on
p - pick off
b - bend
* - harmonics

Intro

e|-----5-------0-------0---------0-------5-------0-------0---------0-|
B|-4h5---4p2-0-------0-----------0---4h5---4p2-0-------0-----------0-|
G|---------------1s2-----2-2s1---1-----------------1s2-----2-2s1---1-|
D|-----------------------------2-2-------------------------------2-2-|
A|-------------------------------2---------------------------------2-|
E|-------------------------------0---------------------------------0-|


e|-0-0-0--0-0-0-0-0-0-0------12*---7*---0-0-0-0-0-0-0----------------|
B|-0-0-0--0-0-0-0-0-0-0------12*---7*---0-0-0-0-0-0-0----------------|
G|-1-1-1--1-1-1-1-1-1-1------12*---7*---1-1-1-1-1-1-1----------------|
D|-2-2-2--2-2-2-4-2-4-2------12*---7*---2-2---4-2-4-2----------------|
A|-2-2-2--2-2---2-2-2-2------12*---7*---2-----2-2-2-2----------------|
E|-0-0-0--0-----0-0-0-0------12*---7*---0-----0-0-0-0----------------|


e|-------------------------------0-0-0-0-0-0-0-----------------------|
B|-------------2p0---------0-----0-0-0-0-0-0-0-----------------------|
G|-------------------3p1---------1-1-1-1-1-1-1-----------------------|
D|-4s6-6-8p6-2-----2-----2---4-2-2-2-2-4-2-4-2-----------------------|
A|-------------------------------2-2---2-2-2-2-----------------------|
E|-------------------------------0-----0-0-0-0-----------------------|


e|-0---0---0---0---0---0---0---0-0-0-0-0-0-0-0-0---------------------|
B|---5--4------------------------0-0-0-0-0-0-0-0---------------------|
G|-----------4---2---1---0-------1-1-1-1-1-1-1-1---------------------|
D|---------------------------2---2-2-2-2-4-2-4-2---------------------|
A|-------------------------------2-2-2---2-2-2-2---------------------|
E|---------------------------------0-----0-0-0-0---------------------|

Verse

e|----------------------------0-0-0--0-0-0-0-0-0-0-------------------|
B|----------------------------0-0-0--0-0-0-0-0-0-0-------------------|
G|----------------------------1-1-1--1-1-1-1-1-1-1-------------------|
D|----------------------------2-2-2--2-2---4-2-4-2-------------------|
A|----------------------------2-2-2--2-----2-2-2-2-------------------|
E|----------------------------0-0-0--0-----0-0-0-0-------------------|


e|----------------------------0-0-0--0-0-0-0-0-0-0-------------------|
B|----------------------------0-0-0--0-0-0-0-0-0-0-------------------|
G|----------------------------1-1-1--1-1-1-1-1-1-1-------------------|
D|----------------------------2-2-2--2-2---4-2-4-2-------------------|
A|----------------------------2-2-2--2-----2-2-2-2-------------------|
E|----------------------------0-0-0--0-----0-0-0-0-------------------|


e|----------------------------0-0-0--0-0-0-0-0-0-0-------------------|
B|----------------------------0-0-0--0-0-0-0-0-0-0-------------------|
G|----------------------------1-1-1--1-1-1-1-1-1-1-------------------|
D|----------------------------2-2-2--2-2---4-2-4-2-------------------|
A|----------------------------2-2-2--2-----2-2-2-2-------------------|
E|----------------------------0-0-0--0-----0-0-0-0-------------------|


e|----------------------------0-0-0--0-0-0-0-0-0-0-------------------|
B|----------------------------0-0-0--0-0-0-0-0-0-0-------------------|
G|----------------------------1-1-1--1-1-1-1-1-1-1-------------------|
D|----------------------------2-2-2--2-2---4-2-4-2-------------------|
A|----------------------------2-2-2--2-----2-2-2-2-------------------|
E|----------------------------0-0-0--0-----0-0-0-0-------------------|

Chorus

e|-0-0-0-0-0-0-0-0-0-7-7-7-7-7-7-7-7-5-5-5-5-5-5-5-5-0-0-0-0-0-0-0-0-|
B|-0-0-0-0-0-0-0-0-0-7-7-7-7-7-7-7-7-5-5-5-5-5-5-5-5-0-0-0-0-0-0-0-0-|
G|-1-1-1-1-1-1-1-1-1-8-8-8-8-8-8-8-8-6-6-6-6-6-6-6-6-1-1-1-1-1-1-1-1-|
D|-2-2-2-2-2-2-2-2-2-9-9-9---9-9-9-9-7-7-7---7-7-7-7-2-2-2---4-2-4-2-|
A|-2-2-2-2-2-2-2-2-2-9-9-----9-9-9-9-7-7-----7-7-7-7-2-2-----2-2-2-2-|
E|-0-0-0-0-0-0-0-0-0-7-7-----7-7-7-7-5-5-----5-5-5-5-0-0-----0-0-0-0-|


e|-0-0-0-0-0-0-0-0-0-7-7-7-7-7-7-7-7-5-5-5-5-5-5-5-5-0-0-0-0-0-0-0-0-|
B|-0-0-0-0-0-0-0-0-0-7-7-7-7-7-7-7-7-5-5-5-5-5-5-5-5-0-0-0-0-0-0-0-0-|
G|-1-1-1-1-1-1-1-1-1-8-8-8-8-8-8-8-8-6-6-6-6-6-6-6-6-1-1-1-1-1-1-1-1-|
D|-2-2-2-2-2-2-2-2-2-9-9-9---9-9-9-9-7-7-7---7-7-7-7-2-2-2---4-2-4-2-|
A|-2-2-2-2-2-2-2-2-2-9-9-----9-9-9-9-7-7-----7-7-7-7-2-2-----2-2-2-2-|
E|-0-0-0-0-0-0-0-0-0-7-7-----7-7-7-7-5-5-----5-5-5-5-0-0-----0-0-0-0-|


e|-12*--7*--0-0-0-0-0-0-0--------------------------------------------|
B|-12*--7*--0-0-0-0-0-0-0--------------------------------------------|
G|-12*--7*--1-1-1-1-1-1-1--------------------------------------------|
D|-12*--7*--2-2-2-4-2-4-2--------------------------------------------|
A|-12*--7*--2-2---2-2-2-2--------------------------------------------|
E|-12*--7*--0-----0-0-0-0--------------------------------------------|


The second verse is the same as the first

For the next chorus skip the first four strums

Third verse same as others

At the end of this chorus skip the harmonics and go straight to the bridge

Bridge

e|-0-0-0-0-0-0-0--5-5-5-5-5-5-0-0-0-0-0-0----------------------------|
B|-0-0-0-0-0-0-0--5-5-5-5-5-5-0-0-0-0-0-0----------------------------|
G|-1-1-1-1-1-1-1--6-6-6-6-6-6-1-1-1-1-1-1----------------------------|
D|-2-2-2-2-2-2-2--7-7-7-7-7-7-2-2-2-2-2-2----------------------------|
A|-2-2-2-2-2-2-2--7-7-7-7-7-7-2-2-2-2-2-2----------------------------|
E|-0-0-0-0-0-0-0--5-5-5-5-5-5-0-0-0-0-0-0----------------------------|


e|-0-0-0--0-0-0-0-0-0-0------12*---7*---0-0-0-0-0-0-0----------------|
B|-0-0-0--0-0-0-0-0-0-0------12*---7*---0-0-0-0-0-0-0----------------|
G|-1-1-1--1-1-1-1-1-1-1------12*---7*---1-1-1-1-1-1-1----------------|
D|-2-2-2--2-2-2-4-2-4-2------12*---7*---2-2---4-2-4-2----------------|
A|-2-2-2--2-2---2-2-2-2------12*---7*---2-----2-2-2-2----------------|
E|-0-0-0--0-----0-0-0-0------12*---7*---0-----0-0-0-0----------------|


e|-------------------------------0-0-0-0-0-0-0-----------------------|
B|-------------2p0---------0-----0-0-0-0-0-0-0-----------------------|
G|-------------------3p1---------1-1-1-1-1-1-1-----------------------|
D|-4s6-6-8p6-2-----2-----2---4-2-2-2-2-4-2-4-2-----------------------|
A|-------------------------------2-2---2-2-2-2-----------------------|
E|-------------------------------0-----0-0-0-0-----------------------|


e|-0---0---0---0---0---0---0---0-0-0-0-0-0-0-0-0---------------------|
B|---5--4------------------------0-0-0-0-0-0-0-0---------------------|
G|-----------4---2---1---0-------1-1-1-1-1-1-1-1---------------------|
D|---------------------------2---2-2-2-2-4-2-4-2---------------------|
A|-------------------------------2-2-2---2-2-2-2---------------------|
E|---------------------------------0-----0-0-0-0---------------------|


Verse again

Chorus x2 play the B and A chords 3x as long in the end

And there you have it.  I hope you have fun with it I know that i did.


Brought to you by: Trey Eilers
Suggest correction
Creating personal tab
Creating personal tab
You can edit any tab online and save it as your Personal.

You can edit, replace or remove any tab part or add personal notes – all changes will be seen only by you.

Personal tabs can be accessed anytime from any device, even offline.
Learn more »
Give kudos to tab author, rate the tab!
1 2 3 4 5
comments
print report bad tab
guest
You may want to rate the tab now too:
select rating
Wanna post a correction for this tab? Suggest correction