Oops, an error
Loading. Please wait.

Struttin Blues tab

version 1
version 1

Whole song

3,562 views 6 this week
3 commentsread comments
1 2 3 4 5
2 more votes to show rating
add to favorites
×
Save as Personal and add changes to this tab that will be seen only by you. Learn more ›
×
You can save this tab as Personal to edit and correct it or add notes. All changes will be seen only by you. Learn more »
launch autoscroll
font size
0
reset
how to read this tab
guitar tuner
edit
Autoscroll
slow
fast
+/-
esc
set tempo
stop
-------------------------------------------------------------------------------
                             STRUTTIN' BLUES - The Black Crowes
-------------------------------------------------------------------------------
Tabbed by: Psycadelic_magi
Email: peter_talbot@hotmail.com

Tuning: EADGBe

Sorry, this is just the intro/main riff, I haven't worked out the solo or the rest of 
verses. But I couldnt find this anywhere else so its a start.

 (Riff 1a)                (Riff 1b)
e|-------------------------|-------------------------------------------------|
B|-------------------------|-------------------------------------------------|
G|--4--2-------------------|-4--2----4p2-4b-4b-(2)---------------------------|
D|--4--2---4--6-4--4-6-4-4-|-4--2--4----4---------(4)------------------------|
A|--2--0---2--2-2--2-2-2-2-|-2--0--------------------------------------------|
E|-------------------------|-------------------------------------------------|

Intro- Riff 1a followed by riff 1b (X2)

Verse- Riff 1a is repeated over and over up until Chris sings "Struttin' blues wanna 
me again..."

Hammond Organ Solo- Guitar plays the intro again.

| () optional, but play quieter
| /  slide up
| \  slide down
| h  hammer-on
| p  pull-off
| ~  vibrato
| +  harmonic
| x  Mute note
===============================================================================

            
            
Suggest correction
Creating personal tab
Creating personal tab
You can edit any tab online and save it as your Personal.

You can edit, replace or remove any tab part or add personal notes – all changes will be seen only by you.

Personal tabs can be accessed anytime from any device, even offline.
Learn more »
Give kudos to tab author, rate the tab!
1 2 3 4 5
comments
print report bad tab
3 comments total.
0 reply
selina82 10 Dec 25, 2007 07:23 PM

I think intro
is:

e|-----|-3-----|
b|-8--7-|-----|
g|-7--7-|--4b5r4---2-2---
--|
d|-7--7-|-----4-----
4p2-|
a|-5--5-|-----|
E|-5--5-|-----|

e|-----|-----|
b|-8--7-|-----
-----|
g|-7--7-|--4b5r4---2-2---
--|
d|-7--7-|-----4-----4p2-|

a|-5--5-|-----|
E|-5--5-|-----
-----|

0 reply
green_ramou! 93 Jul 26, 2008 06:19 AM

Wrong chords dude it starts in E5 goes to D5 then A5 like this

e--------------------|
B--------------------|
G-9---7--------------|
D-9---7---2-2-242-22-|
A-7---5---0-0-000-00-|
E--------------------|

0 reply
green_ramou! 93 Jul 26, 2008 06:21 AM

by the way the A can also be played like this, it's a bit blurry though:

e--------------------|
B--------------------|
G-9---7--------------|
D-9---7---2-2425242--|
A-7---5---0-0000000--|
E--------------------|

guest
You may want to rate the tab now too:
select rating
Wanna post a correction for this tab? Suggest correction