Oops, an error
Loading. Please wait.
We have an official Twice As Hard tab made by UG professional guitarists. Check out the tab »
×
16,061 views 21 this week
3 commentsread comments
1 2 3 4 5
x 5
add to favorites
×
Save as Personal and add changes to this tab that will be seen only by you. Learn more ›
×
You can save this tab as Personal to edit and correct it or add notes. All changes will be seen only by you. Learn more »
launch autoscroll
font size
0
reset
how to read this tab
guitar tuner
backing track
0:00
0:00
edit
Autoscroll
slow
fast
+/-
esc
set tempo
stop
Author
"Twice as Hard"
The Black Crowes
Shake Your Money Maker (Track 01)

By Audioboxer, email: movienut01@comcast.net

Standard Tuning

Alright, the only other tab on here was wrong. It was semi-accurate to the way I've seen 
guitarist play it live, but to play it without changing your tuning would be something 
this-

e|---------------------------------------------------------|
B|---------------------------------------------------------|
G|---------------------------------------------------------|
D|---5-5-------------10~-(10)\-----5-----------10-(10)\----|
A|---5-5---0/2-0-----10~-(10)\-----5--0/2-0----10-(10)\----|
E|---3-3----------3--8~~-(8)-\---3-3--------3--8--(8)-\----|

e|----------------------------------------------------|
B|----------------------------------------------------|
G|----------------------------------------------------|
D|-----5-------------10~-(10)\----5------------10-----|
A|-----5---0/2-0-----10~-(10)\--------0/2-0----10-----|
E|---3-3----------3--8~~-(8)-\--3-----------3--8------|

e|---------------------------------------------------|
B|---------------------------------------------------|
G|-10----9----9--------------------------------------|
D|-10----10---10-------------------------------------|
A|-8-----10---10----1--0---1--0---1--0---------------|
E|-------8----8----------3------3--------------------|

And then the song begins.

That's all I know and all I have time for anyways, but theres your intro.
Suggest correction
Creating personal tab
Creating personal tab
You can edit any tab online and save it as your Personal.

You can edit, replace or remove any tab part or add personal notes – all changes will be seen only by you.

Personal tabs can be accessed anytime from any device, even offline.
Learn more »
comments
print report bad tab
3 comments total.
-1 reply
sterambo 10 Sep 18, 2007 01:58 AM

non accurate

0 reply
80'smetaladdict 565 Dec 13, 2007 03:11 PM

ccczc needs to be longer can someone do the whole osng please

0 reply
ardyduh1manpart 54 Jan 06, 2012 06:19 PM

It's not in the right tuning but for standard it's perfect...and he specified that it's just the intro...5 stars...idk why everyone else is complaining...

guest
You may want to rate the tab now too:
select rating
Wanna post a correction for this tab? Suggest correction