Oops, an error
Loading. Please wait.

A Vulgar Picture intro tab

version 1
version 1

Intro

Whole song

Interactive

8,400 views 1 this week
4 commentsread comments
1 2 3 4 5
x 5
add to favorites
×
Save as Personal and add changes to this tab that will be seen only by you. Learn more ›
×
You can save this tab as Personal to edit and correct it or add notes. All changes will be seen only by you. Learn more »
launch autoscroll
font size
0
reset
how to read this tab
guitar tuner
edit
Autoscroll
slow
fast
+/-
esc
set tempo
stop
----------A Vulgar Picture by THE BLACK DAHLIA MURDER----------

Tabbed by: Legions

Tuning: Drop C (C-G-C-F-A-D)

' = Palm Mute
h = Hammer On
p = Pull Off
" = Tremolo Pick
/ = Slide

The "000" are triplets and they are picked in a quick "down up down" VERY
QUICKLY....hopefully that makes sense.

*NOTE: This is only for one guitar i dont have the harmonies yet
and i will be adding more as soon as i take the time to figure it out.
But just to help you out, i think all the harmonizing is in Harmonic Minor Thirds.
And you may need to listen to the song for timing.



RiFF A                                                 (x2)
D|---------------------------------------------------------|
A|*-------------------------------------------------------*|
F|---------------------------------------------------------|
C|---------------------------------------------------------|
G|*-----5-----5-----5----------5-----5-5h6p5-3-5-3-1-0h1--*|
C|--000---000---000---8-7--000---000-----------------------|
    '''   '''   '''        '''   '''         ' ' ' '

(ending one)
D|------------------------------------------------------|
A|------------------------------------------------------|
F|------------------------------------------------------|
C|------------------------------------------------------|
G|-----6------6------6------9---------------------------|
C|-000-8--000-8--000-8--000-11--8"-7"-5"-4"-5"-7"-5"-4"-|
   '''    '''    '''    '''

(ending two)
D|---------------------------------------------------------|
A|---------------------------------------------------------|
F|----------------------------------****DRUM-FILL****------|
C|---------------------------------------------------------|
G|-----6------6------6------9--0-----------------------12/-|
C|-000-8--000-8--000-8--000-11-0-----------------------12/-|
   '''    '''    '''    '''


RiFF B                                        (x4)
D|-----------------------------------------------|
A|*---------------------------------------------*|
F|-----------------------------------------------|
C|-----------------------------------------------|
G|*---3-5-6p5---3-5--------3-5-6p5--------------*|
C|--00-0-0----00-0-0-5p4-00-0-0----00-5-7h8p7-4~-|
    '' ' '    '' ' '     '' ' '    ''


RiFF C                                                  (x2) 
D|---------------------------------------------------------|
A|*-------------------------------------------------------*|
F|---------------------------------------------------------|
C|--12----10---8---7---8---10---12-------------------------|
G|*--------------------------------10---9-6-4-0-4-0-------*|
C|----0-0----0---0---0---0----0------0-0-0--4-0-4-0-4h5h7--|
      ' '    '   '   '   '    '      ' ' '    ' ' '
 

            
            
Suggest correction
Creating personal tab
Creating personal tab
You can edit any tab online and save it as your Personal.

You can edit, replace or remove any tab part or add personal notes – all changes will be seen only by you.

Personal tabs can be accessed anytime from any device, even offline.
Learn more »
comments
print report bad tab
4 comments total. Showing first comments.
+1 reply
ph3n0m 214 May 02, 2006 04:42 PM

Okay, yeah, it's an awesome tab, but I've heard that tBDM uses C Standard tuning (C F A# D# G C). Meh, whatever, good tab.

0 reply
lord of dead 2,283 Mar 20, 2007 09:40 AM

+1 reply
A7X_SYN 10 May 15, 2007 09:35 PM

Riff C should go like this

RiFF C (x2)
D|---------------------------------------------------------|
A|*-------------------------------------------------------*|
F|---7-----5----------------5---7--------------------------|
C|-------------8---7---8-----------------------------------|
G|*--------------------------------10---9-6-4-0-4-0-------*|
C|----5-5----5---5---5---5----5------0-0-0--4-0-4-0-4h5h7--|
' ' ' ' ' ' ' ' ' ' ' ' '

guest
You may want to rate the tab now too:
select rating
Wanna post a correction for this tab? Suggest correction