Oops, an error
Loading. Please wait.

Contagion tab

version 1
version 1

Whole song

Interactive

10,451 views 1 this week
8 commentsread comments
1 2 3 4 5
x 10
add to favorites
×
Save as Personal and add changes to this tab that will be seen only by you. Learn more ›
×
You can save this tab as Personal to edit and correct it or add notes. All changes will be seen only by you. Learn more »
launch autoscroll
font size
0
reset
how to read this tab
guitar tuner
edit
Autoscroll
slow
fast
+/-
esc
set tempo
stop
Author
the black dahlia murder
contagion
unhallowed

tabbed by: nickelbag
           nordhauser

P.M.  - palm mute           /  - slide up to
\     - slide down to       ~  - vibrato
h     - hammer on           b  - Bend
p     - pull off            Suffixes for bend
t     - tap                 f  - full bend    h - half bend
P.H.  - pinched harmonic    q  - quarter bend t - tap bend
*     - see comment,update  ^  - Hold bend    r release bend
x     - stuccatto           ~  - vibrato bend
,     - slight palm mute    () - ghost note, sustained note, harmonic
"     - tremolo note        <> - Trill




        654321
Tuning: CGCFAD


 (0:00)
           
D |-------|  |---------|  |--------------------------|
A |-------|  |---------|  |--------------------------|
F |-------|  |---------|  |-5-/-8-\\-7-\\-5-/-7-\\-3-|
C |-0-0-0-|  |-------0-|  |--------------------------|
G |-5/1-0-|  |-17/13-0-|  |-3-/-6-\\-5-\\-3-/-5-\\-1-|
C |-7/3-0-|  |-------0-|  |--------------------------|


 (0:27)
|------------------------------------------------------------|
|------------------------------------------------------------|
|------------------------------------------------------------|
|------------------------------------------------------------|
|-------6p5--5p3----------6p5--5p3--6p5--8p6-----------------|
|-0-0-0-----0----0-0-0-0------0----0----0--------------------|

|------------------------------------------------------------|
|------------------------------------------------------------|
|------------------------------------------------------------|
|------------------------------------------------------------|
|---------6p5-----5p3----------------------------------------|
|-0-0-0-0------0-------0-0-0--5-5-5-6-6-6-5-5-5-3-3-3--------|


 (0:44)
|-------------------------------------------------------------|
|-------------------------------------------------------------|
|-------------------------------------------------------------|
|---------------------------------------------------1-----1---|
|-----5p3p0------------------5p3p0------------------1-----1---|
|-000-------5-3-0-3h5h6--000-------5-3-0-3h5h6--000-1-000-1---|

  P.M.     P.M.P.M.      P.M.    P.M.P.M.       P.M.  P.M.
 

|-------------------------------------------------------------|
|-------------------------------------------------------------|
|-------------------------------------------------------------|
|---------------------------------------------------3-----3---|
|-----5p3p0------------------5p3p0------------------3-----3---|
|-000-------5-3-0-3h5h6--000-------5-3-0-3h5h6--000-3-000-3---|
   
  P.M.     P.M.P.M.      P.M.     P.M.P.M.      P.M.  P.M.


 (0:55)
|------------------------------------------------------------|
|------------------------------------------------------------|
|------------------------------------------------------------|
|------------------------------------------------------------|
|-------5-----8-----7p4--------4h5p4-------4h5p4-------------|
|-0-0-0---0-0---0-0-------0-0-0-------0-0-0------------------|

|------------------------------------------------------------|
|------------------------------------------------------------|
|------------------------------------------------------------|
|-------5-----8-----7-/-3--5-3-2--3-2-0--0-2-3---------------|
|------------------------------------------------------------|
|-0-0-0---0-0---0-0------------------------------------------|


 (1:07)
|------------------------------------------------------------|
|------------------------------------------------------------|
|------------------------------------------------------------|
|------------------------------------------------------------|
|-------6p5--5p3----------6p5--5p3--6p5--8p6-----------------|
|-0-0-0-----0----0-0-0-0------0----0----0--------------------|

|------------------------------------------------------------|
|------------------------------------------------------------|
|------------------------------------------------------------|
|------------------------------------------------------------|
|---------6p5-----5p3----------------------------------------|
|-0-0-0-0------0-------0-0-0--5-5-5-6-6-6-5-5-5-3-3-3--------|


 (1:19)
|-------------------------------------------------------------|
|-------------------------------------------------------------|
|-------------------------------------------------------------|
|---------------------------------------------------1-----1---|
|-----5p3p0------------------5p3p0------------------1-----1---|
|-000-------5-3-0-3h5h6--000-------5-3-0-3h5h6--000-1-000-1---|
 
  P.M.     P.M.P.M.      P.M.     P.M.P.M.      P.M.  P.M.
  

|-------------------------------------------------------------|
|-------------------------------------------------------------|
|-------------------------------------------------------------|
|---------------------------------------------------3-----3---|
|-----5p3p0------------------5p3p0------------------3-----3---|
|-000-------5-3-0-3h5h6--000-------5-3-0-3h5h6--000-3-000-3---|

  P.M      P.M.P.M       P.M.      PM.PM.       P.M   P.M.



 (1:30) Solo
|--------------------------------------------------------------
|--------------------------------------------------------------
|-7-5/7h8-10-8-7-8---------------------(7)~-7-8-10-12-10-8-8-7-
|------------------7-10-8-7-8-10-8-7-8-------------------------
|--------------------------------------------------------------
|--------------------------------------------------------------

                                        P.H.  
    
       
  ---------------------------------|-------16h18---------------|
  ---------------------------------|-13h15-------13-15-13-11---|
  -5-3-5-7-7-6-3-2-3-5-5-3-2-0-2-3-|---------------------------|
  ---------------------------------|---------------------------|
  ---------------------------------|---------------------------|
  ---------------------------------|---------------------------|

  
 |------------------------------------------|----------------
 |-10-11-10-8-6-8-10-10-11-10-8-6------8/5--|-8"-10"-11"-13"-
 |------------------------------------------|----------------
 |------------------------------------------|----------------
 |------------------------------------------|----------------
 |------------------------------------------|----------------

                                    


  ----------------------------------------------|------|
  -13h15-5"-7"--8"--5"--7h5-8"-10"-8"-6"-8"-10"-|-10/0-|
  ----------------------------------------------|------|
  ----------------------------------------------|------|
  ----------------------------------------------|------|
  ----------------------------------------------|------|

                         




 (1:42) Fill
|------------------------------------------------------------|
|------------------------------------------------------------|
|------------------------------------------------------------|
|-5-------5-------1-------1--3--1--0-------------------------|
|-5-------5-------1-------1--3--1--0-------------------------|
|-5-5-5-5-5-5-5-5-1-1-1-1-1--3--1--0-0-0-0-0-0-0-0-0-0-0-0-0-|

                          P.M.P.M.P.M.



 (2:02)                (2:23)
|-------| |--------------------------|
|-------| |--------------------------|
|-------| |-5-/-8-\\-7-\\-5-/-7-\\-3-|
|-0-0-0-| |--------------------------|
|-5/1-0-| |-3-/-6-\\-5-\\-3-/-5-\\-1-|
|-7/3-0-| |--------------------------|



 (3:00)

 Guitar 1
|------------------------------------------------------------|
|------------------------------------------------------------|
|------------------------------------------------------------|
|------------------------------------------------------------|
|----------------555555-444444---5-----------5-5-------------|
|-333333-222222------------------0-0-0-0-0-0-0-0-0-0-0-0-0-0-|


 Guitar 2
|------------------------------------------------------------|
|------------------------------------------------------------|
|--------------------------------7-----------7-7-------------|
|----------------333333-222222-------------------------------|
|--------------------------------5-----------5-5-------------|
|-333333-222222------------------0-0-0-0-0-0-0-0-0-0-0-0-0-0-|
 

|------------------------------------------------------------|
|------------------------------------------------------------|
|--------------------------------7-----------7-7-------------|
|------------------------------------------------------------|
|----------------888888-777777---5-----------5-5-------------|
|-777777-666666------------------0-0-0-0-0-0-0-0-0-0-0-0-0-0-|



 Outro
|----------|
|----------|
|-7---7----|
|--------6-|
|-5---5--4-|
|----------|



email me at: nineinchnails7x7x7@yahoo.com if there are any problems thanks.
Suggest correction
Creating personal tab
Creating personal tab
You can edit any tab online and save it as your Personal.

You can edit, replace or remove any tab part or add personal notes – all changes will be seen only by you.

Personal tabs can be accessed anytime from any device, even offline.
Learn more »
comments
print report bad tab
8 comments total. Showing first comments.
0 reply
nickelbag 30 Feb 08, 2004 07:00 PM

the black dahlia murder (v.2)
contagion
unhallowed

tabbed by: nickelbag
nordhauser

P.M. - palm mute / - slide up to
\ - slide down to ~ - vibrato
h - hammer on b - Bend
p - pull off Suffixes for bend
t - tap f - full bend h - half bend
P.H. - pinched harmonic q - quarter bend t - tap bend
* - see comment,update ^ - Hold bend r release bend
x - stuccatto ~ - vibrato bend
, - slight palm mute () - ghost note, sustained note, harmonic
" - tremolo note - Trill


654321
Tuning: CGCFAD


(0:00)

D |-------| |---------| |--------------------------|
A |-------| |---------| |--------------------------|
F |-------| |---------| |-5-/-8-\\-7-\\-5-/-7-\\-3-|
C |-0-0-0-| |-------0-| |--------------------------|
G |-5/1-0-| |-17/13-0-| |-3-/-6-\\-5-\\-3-/-5-\\-1-|
C |-7/3-0-| |-------0-| |--------------------------|


(0:27)
|------------------------------------------------------------|
|------------------------------------------------------------|
|------------------------------------------------------------|
|------------------------------------------------------------|
|-------6p5--5p3----------6p5--5p3--6p5--8p6-----------------|
|-0-0-0-----0----0-0-0-0------0----0----0--------------------|

|------------------------------------------------------------|
|------------------------------------------------------------|
|------------------------------------------------------------|
|------------------------------------------------------------|
|---------6p5-----5p3----------------------------------------|
|-0-0-0-0------0-------0-0-0--5-5-5-6-6-6-5-5-5-3-3-3--------|


(0:44)
|-------------------------------------------------------------|
|-------------------------------------------------------------|
|-------------------------------------------------------------|
|---------------------------------------------------1-----1---|
|-----5p3p0------------------5p3p0------------------1-----1---|
|-000-------5-3-0-3h5h6--000-------5-3-0-3h5h6--000-1-000-1---|

P.M. P.M.P.M. P.M. P.M.P.M. P.M. P.M.


|-------------------------------------------------------------|
|-------------------------------------------------------------|
|-------------------------------------------------------------|
|---------------------------------------------------3-----3---|
|-----5p3p0------------------5p3p0------------------3-----3---|
|-000-------5-3-0-3h5h6--000-------5-3-0-3h5h6--000-3-000-3---|

P.M. P.M.P.M. P.M. P.M.P.M. P.M. P.M.


(0:55)
|------------------------------------------------------------|
|------------------------------------------------------------|
|------------------------------------------------------------|
|------------------------------------------------------------|
|-------5-----8-----7p4--------4h5p4-------4h5p4-------------|
|-0-0-0---0-0---0-0-------0-0-0-------0-0-0------------------|

|------------------------------------------------------------|
|------------------------------------------------------------|
|------------------------------------------------------------|
|-------5-----8-----7-/-3--5-3-2--3-2-0--0-2-3---------------|
|------------------------------------------------------------|
|-0-0-0---0-0---0-0------------------------------------------|


(1:07)
|------------------------------------------------------------|
|------------------------------------------------------------|
|------------------------------------------------------------|
|------------------------------------------------------------|
|-------6p5--5p3----------6p5--5p3--6p5--8p6-----------------|
|-0-0-0-----0----0-0-0-0------0----0----0--------------------|

|------------------------------------------------------------|
|------------------------------------------------------------|
|------------------------------------------------------------|
|------------------------------------------------------------|
|---------6p5-----5p3----------------------------------------|
|-0-0-0-0------0-------0-0-0--5-5-5-6-6-6-5-5-5-3-3-3--------|


(1:19)
|-------------------------------------------------------------|
|-------------------------------------------------------------|
|-------------------------------------------------------------|
|---------------------------------------------------1-----1---|
|-----5p3p0------------------5p3p0------------------1-----1---|
|-000-------5-3-0-3h5h6--000-------5-3-0-3h5h6--000-1-000-1---|

P.M. P.M.P.M. P.M. P.M.P.M. P.M. P.M.


|-------------------------------------------------------------|
|-------------------------------------------------------------|
|-------------------------------------------------------------|
|---------------------------------------------------3-----3---|
|-----5p3p0------------------5p3p0------------------3-----3---|
|-000-------5-3-0-3h5h6--000-------5-3-0-3h5h6--000-3-000-3---|

P.M P.M.P.M P.M. PM.PM. P.M P.M.


(1:30) Solo
|--------------------------------------------------------------
|--------------------------------------------------------------
|-7-5/7h8-10-8-7-8---------------------(7)~-7-8-10-12-10-8-8-7-
|------------------7-10-8-7-8-10-8-7-8-------------------------
|--------------------------------------------------------------
|--------------------------------------------------------------

P.H.


---------------------------------|-------16h18---------------|
---------------------------------|-13h15-------13-15-13-11---|
-5-3-5-7-7-6-3-2-3-5-5-3-2-0-2-3-|---------------------------|
---------------------------------|---------------------------|
---------------------------------|---------------------------|
---------------------------------|---------------------------|


|------------------------------------------|----------------
|-10-11-10-8-6-8-10-10-11-10-8-6------8/5--|-8"-10"-11"-13"-
|------------------------------------------|----------------
|------------------------------------------|----------------
|------------------------------------------|----------------
|------------------------------------------|----------------




----------------------------------------------|------|
-13h15-5"-7"--8"--5"--7h5-8"-10"-8"-6"-8"-10"-|-10/0-|
----------------------------------------------|------|
----------------------------------------------|------|
----------------------------------------------|------|
----------------------------------------------|------|




(1:42) Fill
|------------------------------------------------------------|
|------------------------------------------------------------|
|------------------------------------------------------------|
|-5-------5-------1-------1--3--1--0-------------------------|
|-5-------5-------1-------1--3--1--0-------------------------|
|-5-5-5-5-5-5-5-5-1-1-1-1-1--3--1--0-0-0-0-0-0-0-0-0-0-0-0-0-|

P.M.P.M.P.M.


(2:02) (2:23)
|-------| |--------------------------|
|-------| |--------------------------|
|-------| |-5-/-8-\\-7-\\-5-/-7-\\-3-|
|-0-0-0-| |--------------------------|
|-5/1-0-| |-3-/-6-\\-5-\\-3-/-5-\\-1-|
|-7/3-0-| |--------------------------|


(3:00)

Guitar 1
|------------------------------------------------------------|
|------------------------------------------------------------|
|------------------------------------------------------------|
|------------------------------------------------------------|
|----------------555555-444444---5-----------5-5-------------|
|-333333-222222------------------0-0-0-0-0-0-0-0-0-0-0-0-0-0-|


Guitar 2
|------------------------------------------------------------|
|------------------------------------------------------------|
|--------------------------------7-----------7-7-------------|
|----------------333333-222222-------------------------------|
|--------------------------------5-----------5-5-------------|
|-333333-222222------------------0-0-0-0-0-0-0-0-0-0-0-0-0-0-|


|------------------------------------------------------------|
|------------------------------------------------------------|
|--------------------------------7-----------7-7-------------|
|------------------------------------------------------------|
|----------------888888-777777---5-----------5-5-------------|
|-777777-666666------------------0-0-0-0-0-0-0-0-0-0-0-0-0-0-|


Outro
|----------|
|----------|
|-7---7----|
|--------6-|
|-5---5--4-|
|----------|


email me at: nineinchnails7x7x7@yahoo.com if there are any problems thanks.

+1 reply
gnoo 47 Oct 15, 2006 02:22 PM

You could have just edited the tab you know...

0 reply
ManWhoSmokes 199 Sep 08, 2009 07:00 AM

ghostshadow69 shut the fück up you little cúnt waffle, they played Unhallowed in drop C

guest
You may want to rate the tab now too:
select rating
Wanna post a correction for this tab? Suggest correction